Aboriginal anemia- Cinema strange

Intro part 1


G-------14--14--14---14---14---15---15---15---15---15---14---14-|
D----12---12---12---12---12---12---12---12---12---12---11---11--|
A---------------------------------------------------------------|
E---------------------------------------------------------------|

G---14--14---14--14--14--14-------------------------------------|
D--11--11--11--12--12--12---------------------------------------| (X2)
A---------------------------------------------------------------|
E---------------------------------------------------------------|

part 2

G---14--14--15--15--15--14--14------14-14-14-------------------|
D--12--12--12--12--12--11--11--12-12--12-12--------------------|
A--------------------------------------------------------------|
E--------------------------------------------------------------|

G---14--14--15--15--15--14--14---------------------------------|
D--12--12--12--12--12--11--11--12-12-12-12---------------------|
A--------------------------------------------------------------|
E--------------------------------------------------------------|

G-------------------------------------------------------------|
D--0-0-0-0-0-0-0-0-3-3-3-3-3-3-3-3-3-/7-7-7-7-7-8-8-8-8-------|
A-------------------------------------------------------------|
E-------------------------------------------------------------|

G--------------------------------------------------------------------------|
D-0-0-0-0-0-0-0-0-0--------------------------------------------------------|
A---------------------8-8-8-8-8-8-8-8-8-------------4-4-4-4-4-4  ALL THIS--| X2
E------------------------------------------5-5-5-5-5-5-5-------------------|

G-----------------------------------------------------------------------------|
D-----------------------------------------------------------------------------|  (X2)
A--3-3-3-4-4-4-4-4-4-4-4 4-----------------------------8-8-8-8-8-8-8-8-8------|
E---------------------------5-5-5-5-5-5-5-5-5-5-5-5-5-5-----------------------|

G-----------------------------------------------------------------------|
D-----------------------------------------------------------------------|
A--5-5-5-5-5-4-4-4-4-0-0-0-0--------------------------------------------|(X4)
E-----------------------------------------------------------------------|

It is practically the whole song
Show more