• Song:

    Greensward Grey

  • Artist:

    Cinema Strange

  • Album:

    Cinema Strange

"Greensward Grey" Bass Tab
(Intro)

G ----------------------------------------------------|
D ---------6--------------6---------------6-----------|
A -3/7------6-----3/7------6------3/7------6----------|
E ----------------------------------------------------|

(Verse after Guitar)

G ---------------------------------------------------------------------|
D ---------------------------------------------------------------------|
A ----------------------12-11-8-10--12-11-8-10--12-11-10-8-9/8/9/8/9/8-|
E -------12-11-10-11---------------------------------------------------|

(Bridge)

G -------------------------------------------------------|
D -------------------------------------------------------|
A -------13-14-12-13-14-13-12-13-14-12-13-14-13-12-------|
E -------------------------------------------------------|
Show more