• Song:

    Greensward Grey

  • Artist:

    Cinema Strange

  • Album:

    Cinema Strange

"GREENSWARD GREY"

~It took me a while to find this tab... and I came up short! But at that very moment I 
I have Michael Ribiat on my myspace friends list! So I contacted him and he generously 
me the tab...What better tab that from the man who wrote it!~ -Nick!


Opening:
*Note: The opening is played in hermonics
(Prior to Drums)

E--7----------------------|
B---7---------------------|
G----5-5-7----------------|
D-------------------------|
A-------------------------|
E-------------------------|

(Intro with Drums)

E----------10-11-------------------|
B-8-8-11-8-8--8--8-8-11-8-8-7-10-7-|
G----------------------------------|
D----------------------------------|
A----------------------------------|
E----------------------------------|

Verse:

E------------------------------|
B-----------3-4----------------|
G---0-0-3-0-0-0-0-0-3-0-0--2---|
D--------------------4---4-----|
A------------------------------|
E------------------------------|

~Well, thats basically it, there's more I'll post later like the bridge...
Well Peace Out 4 Now!
XOXO, Nick!
Show more