• Song:

    Little Hell

  • Artist:

    City And Colour

  • Album:

    "Little Hell"

This song is 'Little Hell' by Dallas Green 'City and Colour' from his latest album 
'Little Hell'

Tabbed by Phil Adamson
If you have any questions or corrections please email me at phil535adamson@hotmail.com
Note: These are just the root notes there is plenty room for improv!

Intro
Bass starts (00:59)

Verse

 G|--------------------------------------------------------------|
 D|--------------------------------------------------------------|
 A|-5----5--5--5-8----8-8--8-------------8--7-7~8-5--------------|  x4
 E|--------------------------6----6-6--6-------------------------|


Chorus (01:37)

Instead of going back to the 5 after the fourth time round on the verse go straight to 
the 7 on the 'A' string for the chorus.

G|---------------------------------------------------------------|
D|---------------------------8-----8----8---8--------------------|
A|-7----7--7-5----5-5-8------------------------------------------|  x4
E|----------------------6--6---6-6--6-6---6----------------------|

Playing the octave of the 6 works quite well too get back to the start of the chorus.

After the chorus go back to the 5 and hold the note for a second and slide down to neck 
to fade the sound out as there is a break after the chorus where there is no bass for 7 
seconds and then play this to get back into the verse.

 G|-------------------------|
 D|-------------------------|
 A|-8--7-7~8-5--------------|
 E|-------------------------|


Order
Verse x4
Chorus x4
Verse x4
Chorus x14 / 14 and a half

When the solo starts at 03:02 play the chorus until the end of the song

G|---------------------------------------------------------------|
D|---------------------------8-----8----8---8--------------------|
A|-7----7--7-5----5-5-8------------------------------------------|
E|----------------------6--6---6-6--6-6---6----------------------|


Let the last note ring

G|-------------------------|
D|-------------------------|
A|-7----7--7-5----5-5-8----|
E|----------------------6--|

Thanks for reading my tab i hope it helped!!
please rate also! thanks! :D
Show more