• Song:

    Weightless

  • Artist:

    City And Colour

  • Album:

    "Little Hell"

-------------------------------------------------------------------------------
			     WEIGHTLESS - City And Colour
-------------------------------------------------------------------------------
Tabbed by: HuwEdwardes
Email: huwlikesfridges@msn.com
Okay, so there are one or two tabs but they're wrong...
and then videos of people playing it on you tube had wrong bits too... Sorry.
This is my first time tabbing so don't be too abusive!
Don't think this is exactly how DG plays it but it sounds spot on.
Few doubts about the solo, but please don't hesitate to contact me even if to tell me to 
do one.

- If you want to play both parts (greedy) then just drop the standard guitar into Drop D 
and play notes on the bottom string two frets up.
But I'm sure you knew that already :) -

Tuning: Standard

Intro:   .                           .
e|-------5---------------------------5---------------------------------------|
B|-------6---1-----------------------6---1-----------------------------------|
G|--5----5---2------------------5----5---2-----------------------------------|
D|--5h7------3------------------5h7------3-------------------2---------------|
A|--5--------3------------------5--------3-------------------3p2-------------|
E|-------------------------------------------------------------3-------------|
                  Come close...	               Lay next to me... *Let the G play itself*
*A tempo* Listen to song for strumming pattern, it's very simple.
Verse:  .             .             .
e|------5-------------5-------------5--------(3)-----------------------------|
B|------6--1----------6--1----------6--1-----(3)-----------------------------|
G|--5---5--2------5---5--2------5---5--2------0------------------------------|
D|--5h7----3------5h7----3------5h7----3------0------------------------------|
A|--5------3------5------3------5------3------2------------------------------|
E|--------------------------------------------3------------------------------|
			*Repeat four times*

Chorus:                                            .
e|--1-----------------------1------------------------------------------------|
B|--3--1--------1--3--6-----3--1--------1--3--6----6-------------------------|
G|--2--2-(2)----2--4--7-----2--2-(2)----2--4--7----7-------------------------|
D|--0--3--3-----3--5--7-----0--3--3-----3--5--7----7-------------------------|
A|-----3--3-----3--5--5--------3--3-----3--5--5----5-------------------------|
E|--------1-----------------------1------------------------------------------|

Then back to the verse, repeat 4 times (twice before vocals enter) except shimmying on a 
Bigsby at each Fmaj chord and with a staccato'd Fmaj in the fourth repeat.


Repeat chorus twice.


*Daniel Romano plays the solo in Drop D I believe, underneath this DG continues playing 
the verse in standard*

Solo:
e|--5------------------------------------------------------------------------|
B|--6~-------------------------------------------------------5-6-5-6---------|
G|--7~7p575~--0h2h5p0h2h5------------------------------------5-7-5-7---------|
D|--------------------------------------------------------5h7----------------|
A|--------------------------5~5p35-3~----------------------------------------|
D|--------------------------------------5h75p3h5---0-------------------------|

e|---------------------------------------------------------------------------|
B|-----------------------------------10--------------------------------------|
G|--------------4~-------------------12b14-12p10-12h1412~--12p10\9~-10-12----|
D|--5h7-5p3p0h3/5~--3p0-0-------------------------------------------------10-|
A|----------------------5~---------------------------------------------------|
D|--------------------------5p3p0--------------------------------------------|

e|---------------------------------------------------------------------------|
B|---------------------------------------------------------------------------|
G|---------------10~--------10~----------------------------------------------|
D|------10p12--------12p1012------10h12p10--/7~--5-5-5-5p3p0-3~-0------------|
A|-10p12---------------------------------------------------------------------|
D|---------------------------------------------------------------------------|

Play chorus twice, deaden ending after one beat.
Wonderful song. All credit to City And Colour and the genius of Dallas Green.

************************************

| /   slide up
| \   slide down
| h   hammer-on
| p   pull-off
| ~   vibrato
| .   staccato
| +   harmonic
| x   Mute note
| b   Bend

************************************
Show more