Quit while you're ahead - Classified
Bass Tab
By: Emilio80

It is hell easy
Listen to the song for timing


Verse:
G|-----------------------------------------------------|
D|-----------------------------------------------------|
A|--------7-----------7---7-------7---7----------------|
E|--8---8-------8---8-------8---8-------8---and so on...

Chorus:
G|------------------------------------------------------|
D|------------------------------------------------------|
A|------7---7-9---9-7---7-9-------7---7-9---9-7---7-9---|
E|8---8---------------------8---8----------------------8|
Show more