Quit while you're ahead - Classified
Bass tab by Emilio80 (the good one)


Verse:
G|-----------------------------------------------------|
D|-----------------------------------------------------|
A|--------7-----------7---7-------7---7----------------|
E|--7---7-------7---7-------7---7-------7---and so on...

Chorus:
G|------------------------------------------------------|
D|------------------------------------------------------|
A|------7---7-9---9-7---7-9-------7---7-9---9-7---7-9---|
E|7---7---------------------7---7----------------------7|
Show more