• Song:

    10001110101

  • Artist:

    Clutch

  • Album:

    Full Fathom Five

sponsored links
2/17/09
TABBED BY: ERIC LIDDY
EMAIL: LIDDY_19@HOTMAIL.COM

CLUTCH - 10001110101

0:00

G-----------------| repeat
D-----------------|
A-----------------|
E-3~------1~------|


0:31

G--------------------|
D----------------8/--|
A------/10-8--10-----|
E--3-3---------------|


0:58

G--------------------------------------|
D----------------8/--------------------|
A------/10-8--10----------/10-8--------|
E--3-3----------------3-3--------8-6---|


1:14

G----------------------------------------------------------| leave out the last
D----------------------------------------------------------| 3 and 1 going into
A----------------------3-1~--------------------------3-1---|- the next riff.
E--3333--313-3--1h3-33---------1-3333--313-3--1h3-33-------|


1:36

G-----------------------------|
D-----------------------------|
A-------------1-3-1~----------|
E--3333--3p1-3----------0--1--|


1:56

G--------------------------------------|
D----------------8/--------------------|
A------/10-8--10----------/10-8--------|
E--3-3----------------3-3--------8-6---|


2:17

G---------------------------------------------------------| same thing here.
D---------------------------------------------------------|
A----------------------3-1~--------------------------3-1~-|
E--3333--313-3--1h3-33---------1-3333--313-3--1h3-33------|


2:38

G-----------------------------|
D-----------------------------|
A-------------1-3-1~----------|
E--3333--3p1-3----------0--1--|


2:59

G-----------------|
D-----------------|
A-----------------|
E-3~------1~------|


3:09

G--------------------|
D----------------8/--|
A------/10-8--10-----|
E--3-3---------------|


3:40

G------------|
D------------|
A------------|
E---0--1--3--|


3:50

G-------|-----------------------------|
D-------|-----------------------------|
A-------|-------------1-3-1~----------|
E-0-1-3-|--3333--3p1-3----------0--1--|


4:13

G---------------------------------------------------|
D-----3-3---3----3---3-5----------------------------|
A--5------5----5---5-------------------------3--1~--|
E--------------------------3---313-3--1h3-3-3-------|
Show more
sponsored links
sponsored links