Intro
|-0-----------------|
|--3-0-3-0---0------|
|----------3---3-1--|
|-----------------3-|

Verse
|-------------------|
|-------------------|
|-------------------|
|-00-3-00-00-33333--|x8

Chorus
|-------------------------------------|
|-------------------------------------|
|-99999999--33333333---------77777777-|
|-------------------33333333----------|x2

"My light is electric"
|--------------|
|--------------|
|-99--33----77-|
|--------33----|
Show more