--------------------------------------------------------------------------------------------------
Prostitution Is The Worlds Oldest Profession And I Dear Madame Am A Professional - Cobra Starship
--------------------------------------------------------------------------------------------------

Tabbed By : wg99

Tuning: Standard

Verse riff
G|--------------|----------------|-------------|-----------------|
D|--------------|----------------|-------------|---------1-------|
A|-4---4-6-7----|-----4-6-7--6---|-0---0-2-4---|-----0-2----2----|
E|---4----------|---4------------|---0---------|---0-------------|

Before chorus
G|-----------------|-----------------|
D|-----------------|-----------------|
A|-----------------|---------0---2---|
E|-2-2-2-2-2-2-2-2-|-2-2-2-2---------|

Chorus
G|-----------------|-----------------|-----------------|-----------------|
D|-----------------|-----------------|-----------------|-----------------|
A|-4-4-4-4-4-4-4-4-|-----------------|-----------------|-----------------|
E|-----------------|-4-4-4-4-4-4-4-4-|-5-5-5-5-5-5-5-5-|-0-0-0-0-0-0-0-0-|

Bridge
G|------------|------------|-----------|-----------| }
D|------------|------------|-----------|-----------| }
A|------------|------------|-----------|-----------| } x3
E|-5/---------|---------7--|-9/--------|-----9--7--| }

G|------------|------------|--------------|-----------------|
D|------------|------------|--------------|-----------------|
A|------------|------------|--------------|-----------------|
E|-5/---------|---------7--|-4----4-4-4-4-|-4-4-4-4-4-4-4-4-|

That's it! For the ending just play the first bar of the verse riff.

| /  slide up
| \  slide down
| h  hammer-on
| p  pull-off
| ~  vibrato
| +  harmonic
| x  Mute note
===============================================================================
Show more