-------------------------------------------------------------------------------
    The World Has Its Shine (But I Would Drop It On a Dime) - Cobra Starship
-------------------------------------------------------------------------------

Tabbed by: Sasha
Tuning: Drop D

Hey guys! I suggest that you listen to the song while you play this so you can
get the patterns. The solo is NOT included! During the solo, just play the chorus.


Verse
e|---------------------------------------------------------------------------|
B|-1-------------------------------------------------------------------------|
G|-2-------------------------------------------------------------------------|
D|-2---3---5---2---0---------------------------------------------------------|
A|-----3---5---2---0---------------------------------------------------------|
D|-----3---5---2---0---------------------------------------------------------|


Pre-Chorus
e|---------------------------------------------------------------------------|
B|---------------------------------------------------------------------------|
G|---------------------------------------------------------------------------|
D|-3---3-0-3-5-7---7-5-7---9-10-------3---3-0-3-5-7---5----------------------|
A|-3---3-0-3-5-7---7-5-7---9-10-------3---3-0-3-5-7---5----------------------|
D|-3---3-0-3-5-7---7-5-7---9-10-------3---3-0-3-5-7---5----------------------|

e|------------------------------------|
B|------------------------------------|
G|------------------------------------|
D|-3---3-0-3-5-7---7-5-7---9-10---5---|
A|-3---3-0-3-5-7---7-5-7---9-10---5---|
D|-3---3-0-3-5-7---7-5-7---9-10---5---|


Chorus
e|-------------------------------------|
B|-------------------------------------|
G|-5-----------------------------------|
D|-5---5---6---7---5---3---7---5---3---|
A|-3---5---6---7---5---3---7---5---3---|
D|-----5---6---7---5---3---7---5---3---|

Enjoy! =]
Show more