• Song:

    Bubbly

  • Artist:

    Colbie Caillat

  • Album:

    Bubbly (Int'l 2Trk)

Bass starts at 30s

Chorus:

G|-----------------------|---------------------|-----------------------|---------------------|
D|---------6/7-6--6---\2-|---------------------|---------6\7-6--6---\2-|---------------------|
A|-----------------------|-5---5---5---------7-|-----------------------|-5---5---5-----------|
E|-5--5------------------|-----------5--5------|-5--5------------------|-----------5--5------|

[2nd verse: a repeat of the chorus]

Bridge:

G|-----------------------|---------------------|-----------------------|---------------------|
D|--------------6\5------|---------------------|-----------------------|---------------------|
A|-7\4--4----4------4----|-4-5--5-------5--5---|----7--7------7--7-5-4-|---------------------|
E|-----------------------|-----------5---------|-5----------7----------|-7--7---5/9--9----10-|

[Repeat Chorus twice]

3rd Verse:

G|-----------------------|---------------------|-----------------------|---------------------|
D|-----------------------|---------------------|-----------------------|---------------------|
A|-0--0------11--11------|-\5--5----\0--0------|-0--0------11--11------|-\5--5----\0--0------|
E|-----------------------|---------------------|-----------------------|---------------------|

[Repeat Chorus]

Outro:
(Bass ends at the end of the first "Where ever, where ever, where ever you go")

G|-----------------------|---------------------|-----------------------|---------------------|
D|-----------------------|---------------------|-----------------------|---------------------|
A|-12-------11-----------|-\5-------/12--------|-12-------11-----------|-\5-------/12r-------|
E|-----------------------|---------------------|-----------------------|---------------------|
Show more