• Song:

    Bubbly

  • Artist:

    Colbie Caillat

  • Album:

    Bubbly (Int'l 2Trk)

Bubbly
Colbie Caillat
Acoustic Guitar

This is a simple sounding song. There is no added effects, just acoustic guitar and an 
amp. I will post the bass tab up a little later. Enjoy!
Any questions please e-mail me at travis_cobb44@verizonmail.com. Thanks.


      Intro & Verse 1

E||-------------------------------|---------------------|---------------------|
B||---5---------------5-----------|--5------5-----------|---------------------|
G||*--6---------------6-----------|--6------6-----------|--7------7-----------|
D||*--7---------------7-----------|--6------6-----------|--7------7-----------|
A||-------------------------------|---------------------|--5------5-----------|
E||-------------------------------|---------------------|---------------------|


                                              Chorus

----------------------||-------------------|--------------------------------|
----------------------||-------------------|---------10---------10----------|
--6------6-----------*||--6----------------|-------------9---9------9----9--|
--7------7-----------*||--7----------------|--------------------------------|
----------------------||-------------------|--------------------------------|
----------------------||-------------------|--------------------------------|

----------------------|----------------------|-------------------------|
--10--------10--------|--10--------10--------|--10--------10-----------|
------9--9------9--9--|------9--9------9--9--|------9--9------9--9-----|
----------------------|----------------------|-------------------------|
----------------------|----------------------|-------------------------|
----------------------|----------------------|-------------------------|


    Verse 2

|-----------------------|---------------------|---------------------|
|---5-------5-----------|--5------5-----------|---------------------|
|*--6-------6-----------|--6------6-----------|--7------7-----------|
|*--7-------7-----------|--6------6-----------|--7------7-----------|
|-----------------------|---------------------|--5------5-----------|
|-----------------------|---------------------|---------------------|


                          Chorus

----------------------||---------------------------|----------------------|
----------------------||-----------------10--------|--10--------10--------|
--6------6-----------*||--9------------------9--9--|------9--9------9--9--|
--7------7-----------*||---------11--11------------|----------------------|
----------------------||---------------------------|----------------------|
----------------------||---------------------------|----------------------|


                                          Bridge

------------------|--------------------|---------------------------|
-----------10-----|-------------10-----|---------------------------|
--7-----7------9--|--9--------------9--|--9-------9-----9-----9----|
-----9------------|-----11--11---------|---------11----11----11----|
------------------|--------------------|---------------------------|
------------------|--------------------|---------------------------|


--------------------------|--------------------------|------------------------|
--------------------------|--------------------------|------------------------|
--11----11----11----11----|--13----13----13----13----|--7----7-----9-----9----|
--12----12----12----12----|--11----11----11----11----|--9----9----11----11----|
--------------------------|--------------------------|------------------------|
--------------------------|--------------------------|------------------------|


                       Chorus

-------------------|-------------------------|-------------------|
--9----------------|--10-----------10--------|--10--------10-----|
--9----------------|---------9--9------9--9--|------9--9------9--|
-------------------|-------------------------|-------------------|
-------------------|-------------------------|-------------------|
-------------------|-------------------------|-------------------|

---------------------|---------------------|
-----------10--------|-------------10------|
--9--7--7------9--9--|--9-----------9------|
---------------------|-----11--11--11------|
---------------------|---------------------|
---------------------|---------------------|


    Interlude & Verse 3

|-----------------------------------|---------------------|
|---5-------------------5-----------|--5------5-----------|
|*--6-------------------6-----------|--6------6-----------|
|*--7-------------------7-----------|--6------6-----------|
|-----------------------------------|---------------------|
|-----------------------------------|---------------------|


                                                 Chorus
                                            4x
---------------------|----------------------||----------------------------|
---------------------|----------------------||------------------10--------|
--7------7-----------|--6------6-----------*||*--9------------------9--9--|
--7------7-----------|--7------7-----------*||*---------11--11------------|
--5------5-----------|----------------------||----------------------------|
---------------------|----------------------||----------------------------|

----------------------|------------------|---------------------||
--10--------10--------|-----------10-----|-------------10------||
------9--9------9--9--|--7-----7------9--|--9--------------9--*||
----------------------|-----9------------|-----11--11---------*||
----------------------|------------------|---------------------||
----------------------|------------------|---------------------||


  Ending
                                                        |--3--|

-----------------------------|-----------------------|-------------------------|
------------5--7--14--10--5--|------------14---------|-----------12------------|
--6------6-------------------|--9--11--9------14--9--|--6--7--9------11--9--7--|
-----------------------------|-----------------------|-------------------------|
-----------------------------|-----------------------|-------------------------|
-----------------------------|-----------------------|-------------------------|

----------------------|-------------------------|------------------------|
-----5-----10---------|-------------14----------|-------------12---------|
--6-----6------9------|--9--------------14------|------9----------9------|
------------------11--|-----11--11----------14--|--11-----11---------11--|
----------------------|-------------------------|------------------------|
----------------------|-------------------------|------------------------|


  |--3--|

-----------------------------|------------------------|
-----------------12----------|------------------------|
---------------------11------|-------------10---------|
-----7--8--9--9----------12--|------9----------9------|
--9--------------------------|--11-----11---------11--|
-----------------------------|------------------------|

----------------------------|---------------------|---------------------------|
--------------14--10--------|--------------12--9--|--------------12--7--------|
--------6--6----------9--9--|---------------------|------------------------6--|
--7--7----------------------|--6--6--9--6---------|--4--6--7--4---------9-----|
----------------------------|---------------------|---------------------------|
----------------------------|---------------------|---------------------------|

-------------------------|--------------------|-------------------------|
--------5-----10---------|-------------10-----|--------5--7--14--10--5--|
-----0-----6------9------|--9--------------9--|--6--6-------------------|
---------------------11--|-----11--11---------|-------------------------|
--7----------------------|--------------------|-------------------------|
-------------------------|--------------------|-------------------------|


                          |--3--|

-----------------------|-------------------------|--------------------------|]
------------14---------|-----------12------------|----------------10--------|]
--9--11--9------14--9--|--6--7--9------11--9--7--|---------9-------9--------|]
-----------------------|-------------------------|-----11-----11--11--------|]
-----------------------|-------------------------|--0--------------0--------|]
-----------------------|-------------------------|--------------------------|]
Show more