• Song:

    Bubbly

  • Artist:

    Colbie Caillat

  • Album:

    Bubbly (Int'l 2Trk)

Colby Caillat
Bubbly
Submitted by: paramore_fans@yahoo.com

I am finding the correct version of this tab and I found the D-A-D-F#-A-E tuning + Capo
7th fret decent because that tab is rated with the most number of stars. But you will
a lot of effort to tune your guitar that way. Here is my version, I converted that 
into the most common tuning for EMO songs DROP D tuning!!!! still has a capo on 7th fret

Standard to Drop D tuning process for the beginners
e - e cosntant
B - B constant
G - G constant
D - D constant
A - A constant
E - Tune it down to D

Conclusion: you will only tune the above E string down to D

Here are the decent chords I predicted

Tuning: Drop D

Capo: 7th fret

Chords:
D5 -   00023x or 0577xx
D/C# - x4x23x or x477xx
G5 -   5557xx
A5 -   777xxx
E5 -   222xxx
F#5 -  444xxx
D/F# - 454xxx


Intro: wake up mean..
    D5     D/C#     G5      D5
e|------|--------|------|------|
B|-3----|---3----|------|------|
G|-2----|---2--2-|------|------|
D|----4-|--------|-5--5-|-0--4-| (x2)
A|------|---4----|-5--5-|-0----|
D|-0----|-0------|-5--5-|-0----|


Verse 1:
D5                      D/C#
  I've been awake for a while now
G5                            D5
  you've got me feelin like a child now
D5                            D/C#
  cause every time i see your bubbly face
G5                        D5
  I get the tinglies in a silly place


Chorus 1:
                D5
It starts in my toes
                    D/C#
makes me crinkle my nose
              G5            D5
where ever it goes i always know
                 D5
that you make me smile
                  D/C#
please stay for a while now
               G5
just take your time
               D5
where ever you go


Verse 2:
D5                          A/C#
  The rain is falling on my window pane
G5                   D5
  We are hiding in a sacred place
D5                   A/C#
  Undercover staying driving word
G5                          D5
  You give me feelings that I adore


(Repeat Chorus 1)


Bridge:
F#5               G5
  What am i gonna say
A5                           E5 D/F#
  when you make me feel this way
      G5(hold)
I just hmmm


(Repeat Chorus 1)


Interlude: Dadadada...
D5-D/C#-G5-D5 (x2)


Verse 3:
D5                      D/C#
  I've been awake for a while now
G5                            D5
  you've got me feelin like a child now
D5                             D/C#
  cause every time you hold me in your arms
G5                          D5
  I'm comfortable enough to feel you once


Chorus 2:
                D5
It starts in my soul
                  D/C#
and I'm losing control
                   G5                D5
when you kissed my nose, the feeling shows
                  D5
that you make me smile baby
               D/C#
just take your time now
               G5  D5
more than it's time


Outro: Cool plucking x3
        D5                D/C#               G5                D5
e|-----------------|-----------------|---------0-------|-----------------|
B|---------7-------|---------7-------|-----------0-----|---------3-------|
G|-----------7-----|-----------6-----|-------------0---|-----------2-----|
D|-----4-------4---|---0-7-0-----7---|-----5---------5-|-----4-------4---|
A|---5---5-------5-|-4-------------4-|---5---5---------|---5---5-------5-|
D|-0---------------|-----------------|-5---------------|-0---------------|
then
        D5                D/C#               G5                D5
e|-----------------|-----------------|---------0-------|-----------|
B|---------7-------|---------7-------|-----------0-----|---------3-|
G|-----------7-----|-----------6-----|-------------0---|---------2-|
D|-----4-------4---|---0-7-0-----7---|-----5---------5-|-----4---0-|
A|---5---5-------5-|-4-------------4-|---5---5---------|---5---5-0-|
D|-0---------------|-----------------|-5---------------|-0-------0-|

    D5        D/C#      G5       D5
Wherever, wherever, wherever you go
(Repeat)
D5       D/C#       G5         D5
  oh wherever you go, always I know
D5                   D/C#            G5   D5(hold)
  cause you make me smile just for a while
Show more