Song: Rising Sun
Artist: Cold Chisel

~: let ring for two beats
r: let ring for four beats


Intro
G|------------------|
D|------------------|
A|-0~--3-4--0~--3-4-|
E|------------------|x 4

Verse
G|------------------|
D|------------------|
A|-0~--3-4--0~--3-4-|
E|------------------|x 6

G|------------------|
D|------------------|
A|------------------|
E|-0~--3-4--0~--3-4-|x 2

G|------------------|
D|------------------|
A|-0~--3-4--0~--3-4-|
E|------------------|x 2

G|------------------|
D|------------------|
A|------------------|
E|-0~--3-4--0~--3-4-|x 2

G|------------------|
D|-0~--3-4--0~--3-4-|
A|------------------|
E|------------------|x 2

G|------------------|
D|------------------|
A|-0~--3-4--0~--3-4-|
E|------------------|

G|------------------|
D|------------------|
A|------------------|
E|-0~--3-4--0~--3-4-|

G|------------------|
D|------------------|
A|-0~--3-4--0~--3-4-|
E|------------------|x 2

Chorus
G|------------------|
D|-0~--3-4--0~--3-4-|
A|------------------|
E|------------------|x 2

G|------------------|
D|------------------|
A|-0~--3-4--0~--3-4-|
E|------------------|x 2

G|------------------|
D|-0~--3-4--0~--3-4-|
A|------------------|
E|------------------|x 2

G|------------------|
D|------------------|
A|-0~--3-4--0~--3-4-|
E|------------------|x 2

G|------------------|
D|------------------|
A|------------------|
E|-5r---------------|x 2

G|-------------------|
D|-------------------|
A|-------------------|
E|-7-7--7-7--7-7--7-7|

G|-------------------|
D|-------------------|
A|-------------------|
E|-0-0--0-0--0-0--0-0|

G|------------------|
D|------------------|
A|-0~--3-4--0~--3-4-|
E|------------------|x 2

During solo
G|------------------|
D|-0~--3-4--0~--3-4-|
A|------------------|
E|------------------|x 2

G|------------------|
D|------------------|
A|-0~--3-4--0~--3-4-|
E|------------------|x 2

G|------------------|
D|-0~--3-4--0~--3-4-|
A|------------------|
E|------------------|x 2

G|-------------------|
D|-------------------|
A|-------------------|
E|-7-7--7-7--7-7--7-7|

G|-------------------|
D|-------------------|
A|-------------------|
E|-0-0--0-0--0-0--0-0|
Show more