Main Riff
e:-------------------------------------------------------]
b:-------------------------------------------------------]
g:-------------------------------------------------------]
d:---5-5---5-5---5-5---5---5----2-2---2-2---2-2---2---2p0]
a:-------------------------------------------------------]
e:-3-----3-----3-----3---3----0-----0-----0-----0---0----]


Interlude
e:-----------------------------------------------|   *strum fast or rapidly
b:----------------------------------15-15-15-15--|
g:----------------------12-12-12-12--------------|
d:-12-12-12-12-12-12-14-------------12-12-12-12--|
a:----------------------10-10-10-10--------------|
e:-10-10-10-10-10-10-12--------------------------|

e:-----------------------------------------------]
b:-----------------------------------------------]
g:----------------------12-12-12-12-15-15-15-15--]
d:-12-12-12-12-12-12-14-------------12-12-12-12--]
a:----------------------10-10-10-10--------------]
e:-10-10-10-10-10-10-12--------------------------]


During one verse it just does this

e:-------------------------------------------------------]
b:-------------------------------------------------------]
g:-------------------------------------------------------]
d:---5-----5-----5-----5---5-----2------2-----2---2---2p0]
a:-------------------------------------------------------]
e:-3-----3-----3-----3---3----0-----0-----0-----0---0----]


Hope you guys enjoy. I'm not sure how many times you do it, but this is it!
Show more