• Song:

    In my place

  • Artist:

    Coldplay

  • Album:

    Unplugged

In My Place - Coldplay


     (drums intro)
G|----------------------------------------------------------------------------|
D|----------------------------------------------------------------------------|
A|----------------------------------------------------------------------------|
E|----------------------------------------------------------------------------|

     (intro)
G|----------------------------------------------------------------------------|
D|----------------------------------------------------------------------------| X 2
A|-------------------4---4---7-7-7-----------------------4---4---7-7-7--------|
E|---5---5---4-4-4----------------------5---5---2-2-2-------------------------|

     (verse 1)
G|----------------------------------------------------------------------------|
D|----------------------------------------------------------------------------| X 2
A|-------------------4---4---7-7-7-----------------------4---4---7-7-7--------|
E|---5---5---4-4-4----------------------5---5---2-2-2-------------------------|

     (chorus)
G|----------------------------------------------------------------------------|
D|---------------------------7---9-7-6----------------------------------------| X 3
A|---5---5---5---5-5-5----3~7------------7------------------------------------|
E|----------------------------------------------------------------------------|
 

G|----------------------------------------------------------------------------|
D|----------------------------------------------------------------------------|
A|---5---5---5---5-5-5---7---7---7---7-7-7------------------------------------|
E|----------------------------------------------------------------------------|

     (interlude)                   
G|----------------------------------------------------------------------------|
D|----------------------------------------------------------------------------| 
A|-------------------4---4---7-7-7-----------------------4---4---7-7-7--------|
E|---5---5---4-4-4----------------------5---5---2-2-2-------------------------|

     (verse 2)
G|----------------------------------------------------------------------------|
D|----------------------------------------------------------------------------| X 2
A|-------------------4---4---7-7-7-----------------------4---4---7-7-7--------|
E|---5---5---4-4-4----------------------5---5---2-2-2-------------------------|

     (chorus)
G|----------------------------------------------------------------------------|
D|---------------------------7---9-7-6----------------------------------------| X 3
A|---5---5---5---5-5-5----3~7------------7------------------------------------|
E|----------------------------------------------------------------------------|


G|----------------------------------------------------------------------------|
D|----------------------------------------------------------------------------|
A|---5---5---5---5-5-5---7---7---7---7-7-7------------------------------------|
E|----------------------------------------------------------------------------|

     (guitar solo)
G|----------------------------------------------------------------------------|
D|----------------------------------------------------------------------------|
A|----------------------------------------------------------------------------|
E|----------------------------------------------------------------------------|

     (bridge)
G|----------------------------------------------------------------------------|
D|----------------------------------------------------------------------------| X 2
A|-------------------4---4---7-7-7-----------------------4---4---7-7-7--------|
E|---5---5---4-4-4----------------------5---5---2-2-2-------------------------|


     (outtro)
G|----------------------------------------------------------------------------|
D|----------------------------------------------------------------------------|
A|----------------------------------------------------------------------------|
E|----------------------------------------------------------------------------|


This is my first time, I think it goes well.
Lets share any problems, phone1000@hotmail.com

Phak Aphiwatanakoon
Show more