-------------------------------------------------------------------------------
                When Legends Become Dust - Conducting From the Grave
-------------------------------------------------------------------------------
Tabbed by: TheOmegaKitten
Email: yea right

Tuning: Drop C

This one was a bitch, did it for a friend though so yea...I’m pretty sure 
its damn near perfect although its only a one guitar transcription but at 
the very least you should be able to play a long, and I worked hard on the 
solo especially to get it just right, hope it came out good.

Opening riffs, remember for later on

e|-----------------------------------------------------------------------------|
B|-----------------------------------------------------------------------------|
G|-------------------------------5---7-----------------------------------------|
D|-0----1--3-----5-------7---------------7---------------------5---------------|
A|-0----1--3---------6-------8-------------------6-5-6-8-6-5-6---6-5-6-8-6-5-6-|
E|-0----1--3--55---5---5---5---5---5---5---5---5-------------------------------|

e|------------------------------------------6-10p6------------------------10-15|
B|----------------------------------------8--------8-------------------11------|
G|--------------------5---7-------------7------------7---------------12--------|
D|----5-------7---------------7-------8----------------8----------12-----------|
A|--------6-------8---------------6h8--------------------10-10h13--------------|
E|-55---5---5---5---5---5---5---5----------------------------------------------|

e|-----------------------------------------------------------------------------|
B|-----------------------------------------------------------------------------|
G|--------------------5---7--------8-7-8-7----7-5---5--------------------------|
D|----5-------7---------------7------------10-----8---8-7-5-7-5-4--------------|
A|--------6-------8------------------------------------------------------------|
E|-55---5---5---5---5---5---5---5----------------------------------------------|

Just trill the hammer ons and pull offs, listen to see how long and fast you go

e|-----------------------------------------------------------------------------|
B|-----------------------------------------------------------------------------|
G|--------------------5---7----------------------------------------------------|
D|----5-------7---------------7------------------------------------------------|
A|--------6-------8----------------6hp10----8hp12----10hp13----12hp15----------|
E|-55---5---5---5---5---5---5---5----------------------------------------------|

e|----------------------------------------11-10-11-10----10-8----8-------------|
B|-11-10-11-10----11-10-11-10----11-10----------------13-----11---11-10-11-10-7|
G|-------------12-------------11-------11--------------------------------------|
D|-----------------------------------------------------------------------------|
A|-----------------------------------------------------------------------------|
E|-----------------------------------------------------------------------------|

Tremelo last five notes from the twelve

e|-----------------------------------------------------------------------------|
B|-11-10-11-10----11-10-11-10--------------------------------------------------|
G|-------------12-------------11--12-11----11----------------------------------|
D|--------------------------------------13-----12-13-12-10---------------------|
A|---------------------------------------------------------13-12-9-------------|
E|-----------------------------------------------------------------------------|

e|-----------------------------------------------------------------------------|
B|-----------------------------------------------------------------------------|
G|-----10---------7-------10---------7-----------------------------------------|
D|---8------7-10--8-----8------7-10--8-----------------------------------------|
A|-6------8-------10--6------8-------10----------------------------------------|
E|-----------------------------------------------------------------------------|


Main riffs, do it 4 times i believe, both bars

e|-------------------------------10-15p10--------------------------------------|
B|--------------------------8/11----------11-----------------------------------|
G|-----10-------7p5-------7----------------------------------------------------|
D|---8--------7-----8-5-8------------------------------------------------------|
A|-6------6-8------------------------------------------------------------------|
E|-----------------------------------------------------------------------------|

e|-----------------------------------------------------------------------------|
B|---------------------------8-11p8-10p8---------------------------------------|
G|-----7-------------------7-------------10p7-8p7------------------------------|
D|---5----------8p7------8-----------------------------------------------------|
A|-3-----3-6-10-----8-10-------------------------------------------------------|
E|-----------------------------------------------------------------------------|

e|------------------------6-----5----------------------------6-----5-----------|
B|---3---4-3---4-3----4-----4-----6-----3---4-3---4-3----4-----4-----6---------|
G|-----3-----3----------5-----5-----5-----3-----3----------5-----5-----5-------|
D|-1----------------3-----------------1----------------3-----------------------|
A|-1----------------3-----------------1----------------3-----------------------|
E|-1----------------3-----------------1----------------3-----------------------|

e|-----------------------------------------------------------------------------|
B|-----------------------------------------------------------------------------|
G|-----------------------------------------------------------------------------|
D|-------------5p0-3p0-5p0-3p0-5p0-3p0-5p0-3p0---------------------------------|
A|---------------------------------------------3-3-3-3--/6-5-3-5-6-------------|
E|-5555-55-555---------------------------------3-3-3-3-------------------------|

These are ones not elevens then a cool tapping part

e|-----------------------------------------------------------------------------|
B|----------------------------------/8-6h8/10-8h10/15p13-11h13/15--------------|
G|-----------------------------------------------------------------------------|
D|-----------------------------------------------------------------------------|
A|-1111-11-111-11-11-1-1-1--3-3-3-3--------------------------------------------|
E|-1111-11-111-11-11-1-1-1--3-3-3-3--------------------------------------------|

   T        T        T        T        T        T        T        T
e|-22p10h15-20p10h15-18p10h15-20p10h15-18p10h15-17p10h15-18p10h15-17p10h15-----|
B|-----------------------------------------------------------------------------|
G|-----------------------------------------------------------------------------|
D|-----------------------------------------------------------------------------|
A|-----------------------------------------------------------------------------|
E|-----------------------------------------------------------------------------|
   T       T       T       T       T       T        T      T
e|-18p8h13-17p8h13-18p8h13-20p8h13-18p8h13-17p8h13-18p8h13-17p8h13-------------|
B|-----------------------------------------------------------------------------|
G|-----------------------------------------------------------------------------|
D|-----------------------------------------------------------------------------|
A|-----------------------------------------------------------------------------|
E|-----------------------------------------------------------------------------|
   T       T       T       T       T       T       T       T
e|-15p6h11-13p6h11-15p6h11-17p6h11-18p6h11-17p6h11-15p6h11-13p6h11-------------|
B|-----------------------------------------------------------------------------|
G|-----------------------------------------------------------------------------|
D|-----------------------------------------------------------------------------|
A|-----------------------------------------------------------------------------|
E|-----------------------------------------------------------------------------|


   T       T       T       T       T       T        T      T
e|-18p8h13-17p8h13-18p8h13-20p8h13-18p8h13-17p8h13-18p8h13-17p8h13-------------|
B|-----------------------------------------------------------------------------|
G|-----------------------------------------------------------------------------|
D|-----------------------------------------------------------------------------|
A|-----------------------------------------------------------------------------|
E|-----------------------------------------------------------------------------|

e|-/15-13h15/17-15h17/22p20-18h20/22-------------------------------------------|
B|-----------------------------------------------------------------------------|
G|-----------------------------------------------------------------------------|
D|-----------------------------------------------------------------------------|
A|-----------------------------------------------------------------------------|
E|-----------------------------------------------------------------------------|

just heavy ones, just listen for the rhythm then you do this twice

e|-----------------------------------------------------------------------------|
B|-----------------------------------------------------------------------------|
G|-----------------------------------------------------------------------------|
D|--8---10---7----------------8---10---7---------------------------------------|
A|--6---8----5---8---10---7---6---8----5---8---10---7--------------------------|
E|---------------8---10---7----------------8---10---7--------------------------|

MAin riff again just lower on the neck, again both bars 4 times

e|-------------------------------------------17-22p17--------------------------|
B|-------------------------------------15/18----------18-----------------------|
G|-------17----------14p12----------14-----------------------------------------|
D|----15----------14-------15-12-15--------------------------------------------|
A|-13-------13-15--------------------------------------------------------------|
E|-----------------------------------------------------------------------------|

e|-----------------------------------------------------------------------------|
B|-------------------------------------15-18p15-17p15--------------------------|
G|-------14-------------------------14----------------17p14-15p14--------------|
D|----12-------------15p14-------15--------------------------------------------|
A|-10-------10-13-17-------15-17-----------------------------------------------|
E|-----------------------------------------------------------------------------|


e|--------------------------|--------------------------------------------------|
B|--------------------------|--------------------------------------------------|
G|-------17------14-14------|--------------------------------------------------|
D|----15------14----15-14-12|10-------------------------12---------------------|
A|-13------15-------17-15-13|12-10-10-13-10-12-10-13-10----10-13-10-12-10-13-10|
E|--------------------------|--------------------------------------------------|

e|-----------------------------------------------------------------------------|
B|-----------------------------------------------------------------------------|
G|-----------------------------------------------------------------------------|
D|---------------------------------------------------------8-------------------|
A|-8-8-12-8-10-8-12-8-9-9-12-9-10-9-12-9-6-6-10-6-8-6-10-6---6-10-6-8-6-10-6---|
E|-----------------------------------------------------------------------------|

e|-----------------------------------------------------------------------------|
B|-----------------------------------------------------------------------------|
G|-----------------------------------------------------------------------------|
D|---------8h10h12---------8h10h12---------8h10h12---------8h10h12-------------|
A|-8h10h12---------8h10h12---------8h10h12---------8h10h12---------------------|
E|-----------------------------------------------------------------------------|

Repeat last three bars the continue to this...

e|---------------------------------------------------------------------------|
B|---------------------------------------------------------------------------|
G|---------------------------------------------------------------------------|
D|---------------------------------------------------------------------------|
A|-10-10-10-13-13-13-12-12-12-13-13-13-10-10-10-13-13-13-12-12-12-13-13-13---|
E|---------------------------------------------------------------------------|

e|---------------------------------------------------------------------------|
B|---------------------------------------------------------------------------|
G|---------------------------------------------------------------------------|
D|---------------------------------------------------------------------------|
A|-8-8-8-12-12-12-10-10-10-12-12-12-9-9-9-12-12-12-10-10-10-12-12-12---------|
E|---------------------------------------------------------------------------|

e|---------------------------------------------------------------------------|
B|---------------------------------------------------------------------------|
G|---------------------------------------------------------------------------|
D|---------------------------------------------------------------------------|
A|-6-6-10-6-5-5-8-5-3-3-6-3-1-1-5-1--3---------------------------------------|
E|-----------------------------------3--/8-7-8-10-8-7-8----------------------|

Again repeat last three bars and continue by repeating opening riffs then 
continue to this...

rRepeat following twice
e|---------------------------------------------------------------------------|
B|-11-10----10---------------------------------------------------------------|
G|-------12----12-10---------------------------------------------------------|
D|-------------------12-10-12-13-12-10-12------------------------------------|
A|---------------------------------------------------------------------------|
E|---------------------------------------------------------------------------|

e|----------------------------10-15p10---------------------------------------|
B|-13-11-10-11-10----------11----------11------------------------------------|
G|----------------10-12-12----------------12---------------------------------|
D|---------------------------------------------------------------------------|
A|---------------------------------------------------------------------------|
E|---------------------------------------------------------------------------|

e|---------------------------------------------------------------------------|
B|-13-11-10-11-10-------10/13\10---------------------------------------------|
G|----------------10-12----------11----11------------------------------------|
D|----------------------------------12---------------------------------------|
A|---------------------------------------------------------------------------|
E|---------------------------------------------------------------------------|

Repeat last two bars then the solo follows...yay

SOLO:

e|---------------------------------------------------------------------------|
B|-11-10----10----------------------------------------------------6-----6----|
G|-------12----12-10-12-10----10--------------------------------7-----7------|
D|-------------------------12----12-10-8/7-8p7----7---------7-8-----8--------|
A|---------------------------------------------10---10-8-10------------------|
E|---------------------------------------------------------------------------|

e|---------------------------------------------------------------------------|
B|------8------8\6-----------6-----6-----------------------------------------|
G|----8------8-----7-5-7---7-----7-------------------------------------------|
D|-10-----10-------------5-----7-----8---------------------------------------|
A|---------------------------------------------------------------------------|
E|---------------------------------------------------------------------------|

Repeat previous riff then...

e|----------------------------------15-17-13---------------------------------|
B|-11-10----10-------------------15----------15-18b20------------------------|
G|-------12----12p10----10/12-15---------------------------------------------|
D|-------------------12------------------------------------------------------|
A|---------------------------------------------------------------------------|
E|---------------------------------------------------------------------------|

e|---------------------------------------------------------------------------|
B|-15-16p15----------15-----------------------6-----6------------------------|
G|----------17-15-17----17-15-14-15-14------7-----7--------------------------|
D|-------------------------------------15-5-----7-----8----------------------|
A|---------------------------------------------------------------------------|
E|---------------------------------------------------------------------------|

e|---------------------------------------------------------------------------|
B|-11-10----10-11-11/13-11-10-11---------------------------------------------|
G|-------12----------------------------10----12p10----------10h12------------|
D|-------------------------------10/12----12-------12-10h12------------------|
A|---------------------------------------------------------------------------|
E|---------------------------------------------------------------------------|

e|---------------------------------------------------------------------------|
B|---------------------------------------------------------------------------|
G|------7----7-10-10/12-10-8-7h8p7-------------------------------------------|
D|-8h10---10-----------------------10-8-10/12-10-8-7-7h8p7-------------------|
A|---------------------------------------------------------------------------|
E|---------------------------------------------------------------------------|

e|--------------------------13-15-13-----------------------------------------|
B|-----8/11-/11b13-/13b15~-----------16-15-13--------------------------------|
G|---7----------------------------------------15-14h15p14--------------------|
D|-8-------------------------------------------------------------------------|
A|---------------------------------------------------------------------------|
E|---------------------------------------------------------------------------|

e|---------------------------------------------------------------------------|
B|---------------------------------------------------------------------------|
G|---------------------------------------------------------------------------|
D|-15h17-17-17\15-15-15\13-13-13\12-10-8h10p8-7h8p7------8-------------------|
A|--------------------------------------------------8/10---10-10-8-10--------|
E|---------------------------------------------------------------------------|

e|-17h18p17p15----15---------------------------------------------------------|
B|-------------18----18-16-15h16p15----15-------15---------------------------|
G|----------------------------------17----17-15----15\14-15-14---------------|
D|---------------------------------------------------------------------------|
A|---------------------------------------------------------------------------|
E|---------------------------------------------------------------------------|

e|---------------------------------------------------------------------------|
B|-------------------------11--10----10--------------------------------------|
G|-------10-12p10-----------------12----12-10-12-10--------------------------|
D|-15\12----------13p12-13--------------------------13-12h13p12--------------|
A|---------------------------------------------------------------------------|
E|---------------------------------------------------------------------------|

e|---------------------------------------------------------------------------|
B|---------------------------------------------------------------------------|
G|------------------------17-------------------------------------------------|
D|-10-8-7-8-7----------15-------14-12----------------------------------------|
A|------------8-10--13-------15----------------------------------------------|
E|---------------------------------------------------------------------------|

Hey you did it perfectly! Please comment if you have corrections or questions and 
please rate with five stars ;)

************************************

| /   slide up
| \   slide down
| h   hammer-on
| p   pull-off
| ~   vibrato
| +   harmonic
| x   Mute note
| b   Bend
| pb  Pre-bend
| br  Bend release
| pbr Pre-bend release
| brb Bend release bend

************************************
Show more