-------------------------------------------------------------------------------
			     Breaking the chainz - Crashdiet
-------------------------------------------------------------------------------
Tabbed by:Glamman
Email:sam_blinkdude@hotmail.com
        hey I figured this out by ear and I think it sounds right so
        cheers for checking it out.
Tuning:Drop D
  Intro/Verse
e|---------------------------------------------|
B|---------------------------------------------|
G|------------------------------------3--5--7--|
D|-0000000000000000000000000000000-0--3--5--7--|
A|-0000000000000000000000000000000-0--1--3--5--|
D|-0000000000000000000000000000000-0-----------|
  Guitar 2
e|---10----12----13----15--17---22---------------------------------------------|
B|---13b---15b---16b-----------------------------------------------------------|
G|-----------------------------------------------------------------------------|
D|-----------------------------------------------------------------------------|
A|-----------------------------------------------------------------------------|
D|-----------------------------------------------------------------------------|
  Pre chorus
e|---------------------------------------------------------------------------------|
B|---------------------------------------------------------------------------------|
G|--7---5--3----2------------------------------------------------------------------|
D|--7---5--3----2------------------------------------------------------------------|
A|--5---3--1----0------------------------------------------------------------------|
D|---------------------------------------------------------------------------------|
  Chorus
e|---------------------------------------------------------------------------|
B|---------------------------------------------------------------------------|
G|------7-5-7--------------3-2-3--5-3-5---2----------------------------------|
D|------7-5-7--------------3-3-3--5-5-5---2----------------------------------|
A|------5\3/5--------------1-1-1--3-3-3---0----------------------------------|
D|--00----------5730--00----0-0--0-0-0---------------------------------------|
  Solo
e|------8-13-12-8-13-12-8-8\6--------------------------------|
B|-----8-8--8--8-8--8--8--8\6--------------------------------|
G|-----------------------------10-9h10p9--7-5-7b-5-7-5-----5-|
D|-0---------------------------------------------------5h7---|
A|-0---------------------------------------------------------|
D|-0---------------------------------------------------------|

e|--------------------------------------------------------------|
B|--8h5-6h5-8h5-6h5-8h5-6h5--5\3-3---------------------3-5-6-8--|
G|---------------------------5\3-3-3-2h3p2----------------------|
D|-----------------------------------------5-3-7-5-3-2----------|
A|--------------------------------------------------------------|
D|--------------------------------------------------------------|

e|---10--12--13--15--22b--|
B|------------------------|
G|------------------------|
D|------------------------|
A|------------------------|
D|------------------------|
  Solo guitar 2
e|-------------------------------|
B|-------------------------------|
G|-5--3--5--3--------------------|
D|-5--3--5--3--0---0-0-0-0-0000--|
A|-3--1--3--1--0---0-0-0-0-0000--|
D|-------------0---0-0-0-0-0000--|

| B  bend
| /  slide up
| \  slide down
| h  hammer-on
| p  pull-off
| ~  vibrato
| +  harmonic
| x  Mute note
Show more