sponsored links
CRASHD├ĆET - GENERATION WILD

BASS

TUNE: D#, G#, C#, F# (1/2 TUNE DOWN)

[INTRO]
F|---------------------------------------------------------------------------------|
C|---------------------------------------------------------------------------------|
G|--5-77-7--5-33-3--7-55-5--------------5-77-7--5-33-3--7-55-5-------5-55-3~-333~--|
D|--------------------------3-3333-5-3--------------------------3-33---------------|

[VERSE #1]
F|----------------------------------------------------------------------|
C|----------------------------------------------------------------------|
G|-5555555555555-3333333333333-------5555555555555-3333333333333--------|
D|------------------------------5-3------------------------------5-3----|

F|----------------------------------------------------------------------------------|
C|----------------------------------------------------------------------------------|
G|-5555555555555-3333333333333-------5555555555555-333-333-333-333------------------|
D|------------------------------5-3---------------------------------555-555-555-555-|

[CHORUS #1]
F|---------------------------------------------------------------------------------|
C|---------------------------------------------------------------------------------|
G|--5-77-7--5-33-3--7-55-5--------------5-77-7--5-33-3--7-55-5-------5-55-3~-333~--|
D|--------------------------3-3333-5-3--------------------------3-33---------------|

[VERSE #2]
F|----------------------------------------------------------------------|
C|----------------------------------------------------------------------|
G|-5555555555555-3333333333333-------5555555555555-3333333333333--------|
D|------------------------------5-3------------------------------5-3----|

F|----------------------------------------------------------------------------------|
C|----------------------------------------------------------------------------------|
G|-5555555555555-3333333333333-------5555555555555-333-333-333-333------------------|
D|------------------------------5-3---------------------------------555-555-555-555-|

[CHORUS #2]
F|---------------------------------------------------------------------------------|
C|---------------------------------------------------------------------------------|
G|--5-77-7--5-33-3--7-55-5--------------5-77-7--5-33-3--7-55-5---------------------|
D|--------------------------3-3333-5-3--------------------------3-3333-5-3---------|

F|---------------------------------------------------------------------------------|
C|---------------------------------------------------------------------------------|
G|--5-77-7--5-33-3--7-55-5--------------5-77-7--5-33-3--7-55-5-------5-55-3~-333~--|
D|--------------------------3-3333-5-3--------------------------3-33---------------|

[SOLO]
F|--------------------------------------|2x      |-----| 
C|----------2-0------4-2----------------|2x      |-----|
G|-----------------------------555--777-|2x THEN |-55~-|
D|-22222222-----2222-----22222----------|2x      |-----|

[INTERLUDE]
F|------------------------------------------------------------------|
C|------------------------------------------------------------------|
G|------------------------------------------------------------------|
D|-10-10-10-10-10-10-10-10-10-10-10-8-8-8-8-8-8-8-8-8-8-8-8-8-8-----|

F|------------------------------------------------------------------|
C|------------------------------------------------------------------|
G|--------------------------------------------------------5-5~---3~-|
D|-10-10-10-10-12-12-12-12-12-12-12-8-8-8-8-8-8-8-8-8-3-3-----------|

						   x x
F|------------------------------------------------------|
C|------------------------------------------------------|
G|-0-0-0-0-0-0-0-0-2-2-2-2-2-2-2-2-3-3-3-3-3-3-3-3-5-5--|
D|------------------------------------------------------|


[CHORUS #3]
F|---------------------------------------------------------------------------------|
C|---------------------------------------------------------------------------------|
G|--5-77-7--5-33-3--7-55-5--------------5-77-7--5-33-3--7-55-5---------------------|
D|--------------------------3-3333-5-3--------------------------3-3333-5-3---------|

F|-----------------------------------------------------------------------------------------|
C|-----------------------------------------------------------------------------------------|
G|--5-77-7--5-33-3--7-55-5--------------5-77-7--5-33-3--7-55-5-------5-55-333333-----------|
D|--------------------------3-3333-5-3--------------------------3-33-------------5-3-0~~---|
Show more
sponsored links
sponsored links