Main Riff
e--------------------|
b--------------------|
g--------------------|
d--00-10-0---57-0-35-|
a--00-10-0---57-0-35-|
d--00-10-0-4-57-0-35-|

e--------------------|
b--------------------|
g--------------------|
d--00-10-0---57-0-7--|
a--00-10-0---57-0-7--|
d--00-10-0-4-57-0-7--|

Break

e--------------------|
b--------------------|
g--------------------| Play it twice in a row the first time this part is
d-77-55--99--55-55---| played
a-55-33--77--33-33---|
d--------------------|

e---------------------|
b---------------------|
g---------------------|
d-77-55--10-10--55-55-|
a-55-33--8--8---33-33-|
d---------------------|

Second break(when Olliver stops singing)
Main Riff
e--------------------|
b--------------------|
g--------------------|
d--00-10-0---57-0-35-|
a--00-10-0---57-0-35-|
d--00-10-0-4-57-0-35-|

e----------------------|
b----------------------|
g----------------------|
d--00-10-0---57-0-8-10-|
a--00-10-0---57-0-8-10-|
d--00-10-0-4-57-0-8-10-|

First tab! Enjoy it...
Fede10
Show more