IN THE RAW
By Crashdiet

Tuning: Dropped D (e,b,g,d,a,D)

Intro
e------------------------|---------------------|
b------------------------|---------------------|
g------------------------|-------------------2-|
d-----5--------2---------|------5--------2---2-|
a-0-0-3-0--4-5-0--0--3-5-|--0-0-3-0--4-5-0---0-|
D-0-0---0--4-5----0--3-5-|--0-0---0--4-5---0---|

Main Riff
e---------------------------|--------------------------|
b---------------------------|--------------------------|
g--7-7--5-5--9-9--5-5--5--5-|--7-7--5-5--10-10--5--5-5-|
d--7-7--5-5--9-9--5-5--5--5-|--7-7--5-5--10-10--5--5-5-|
a--5-5--3-3--7-7--3-3--3--3-|--5-5--3-3---8-8---3--3-3-|
D---------------------------|--------------------------|

Verse
e---------------------------|--------------------------|
b---------------------------|--------------------------|
g--7-7--5-5--9-9--5-5--5--5-|--7-7--5-5--10-10--5--5-5-|
d--7-7--5-5--9-9--5-5--5--5-|--7-7--5-5--10-10--5--5-5-|
a--5-5--3-3--7-7--3-3--3--3-|--5-5--3-3---8-8---3--3-3-|
D---------------------------|--------------------------|
  "Like a black cat wining in the alley..."

After Verse
e------------------------|-----------------------|
b------------------------|-----------------------|
g------------------------|-------------------3-5-|
d-----5--------2---------|------5--------2---3-5-|
a-0-0-3-0--4-5-0--0--3-5-|--0-0-3-0--4-5-0---1-3-|
D-0-0---0--4-5----0--3-5-|--0-0---0--4-5---0-----|

Verse
e---------------------------|--------------------------|
b---------------------------|--------------------------|
g--7-7--5-5--9-9--5-5--5--5-|--7-7--5-5--10-10--5--5-5-|
d--7-7--5-5--9-9--5-5--5--5-|--7-7--5-5--10-10--5--5-5-|
a--5-5--3-3--7-7--3-3--3--3-|--5-5--3-3---8-8---3--3-3-|
D---------------------------|--------------------------|
  "Feel the customs doing you a strip search..."

Pre-Chorus
e---------------------------|
b---------------------------|
g--7-7--5-5--9-9--5-5--5--5-|
d--7-7--5-5--9-9--5-5--5--5-|
a--5-5--3-3--7-7--3-3--3--3-|
D---------------------------|

Sorry, that's all. I don't figure out the chorus.


If you want to transcribe by ear the "Unattractive Revolution" album, note that the 
tuning is dropped D.
Show more