D tuning/ 1 step down/ DGCFAD


Intro:
Do a pick slide before the first chord

E----------------------|--------------------------|
B----------------------|--------------------------|
G---------4----2-------|---------4----2----2-2----|
D--2-4----4----2----2--|--2-4----4----2----2-2-2--|
A--2-4----2----0----2--|--2-4----2----0----0-0-2--|
E--0-2--------------0--|--0-2------------------0--|

Verse:

My weak resistance of your flower got me infected caus i was to blind to see...
E--------------------------------------------------------------------------|
B--------------------------------------------------------------------------|
G--6--------------4--------------2---------------------4---4---------------|
D--6--------------4--------------2---------------------4---4------4---4----|
A--4--------------2--------------0---------------------2---2------4---4----|
E-----------------------------------------------------------------2---2----|

Pre Chorus:

    You lead the game i followed, you were the bait i swallowed
E----------------------------------------------------|
B----------------------------------------------------|
G-2--------------4--------------2--------------4-----|
D-2--------------4--------------2--------------4-----|
A-0--------------2--------------0--------------2-----|
E----------------------------------------------------|

Chorus:

    It's a miracle you walk the earth alone it's a miracle i stand a side you
E----------------------------------------------------------------------------|
B----------------------------------------------------------------------------|
G-9--------------------5---------------7----------------------5-----7--------|
D-9--------------------5--------5------7----------------------5-----7--------|
A-7--------------------3--------5------5----------------------3-----5--------|
E-------------------------------3--------------------------------------------|

   Your like a plague in a wide and open show you pass it on like i needed it most
E----------------------------------------------------------------------------|
B----------------------------------------------------------------------------|
G-9------------------------5---------------7-------------------------5-------|
D-9------------------------5--------5------7-------------------------5-------|
A-7------------------------3--------5------5-------------------------3-------|
E-----------------------------------3----------------------------------------|

Solo Rythm Guitar:

E----------------------------------------------------------------------------|
B----------------------------------------------------------------------------|
G-6--------------------2---------------4----------------------2-----4--------|
D-6--------------------2--------2------4----------------------2-----4--------|
A-4--------------------0--------2------2----------------------0-----2--------|
E-------------------------------0--------------------------------------------|

E-----------------------------------------------------------------------|
B-----------------------------------------------------------------------|
G-6------------------------2---------------4------------------2---------|
D-6------------------------2--------2------4------------------2---------|
A-4------------------------0--------2------2------------------0---------|
E-----------------------------------0-----------------------------------|


Solo:

E----------------------------------------11h14p11------------------------------------------|
B------12-----------------------9--12/14----------14-11------------------------------------|
G--11b---11br-9--11-9-11-9---11b------------------------13-11------------------------------|
D-------------------------------------------------------------13-11------------------------|
A-------------------------------------------------------------------14-13-11---------------|
E----------------------------------------------------------------------------14-13-12-11-9-|

E---12---16-16b-14---16-14--14h16p14----14---------------------|
B-12--12-----------17----------------17----16-17-16b~~~~~~~~~~-|
G--------------------------------------------------------------|
D--------------------------------------------------------------|
A--------------------------------------------------------------|
E--------------------------------------------------------------|

Bridge
     You knew my pain               You led the game
E--------0-----------2-----------0-----------2----------|
B----------1-----------3-----------1-----------3--------|
G-----2------2-----4-----4-----2-----2-----4-----4------|
D---2------------4-----------2-----------4--------------|
A-0------------2-----------0-----------2----------------|
E-------------------------------------------------------|

And I followed (Yeah I followed) 
                              Your lies your play youre all the same to me
E---------------------------------------------------------------|
B---------------------------------------------------------------|
G-2-2-2-2-2-2-2-2-2-2-2-2-2-2-2-2-2-2-2-2-2-2-4-4-4-4-4-4-4-4---|
D-2-2-2-2-2-2-2-2-2-2-2-2-2-2-2-2-2-2-2-2-2-2-4-4-4-4-4-4-4-4---|
A-0-0-0-0-0-0-0-0-0-0-0-0-0-0-0-0-0-0-0-0-0-0-2-2-2-2-2-2-2-2---|
E---------------------------------------------------------------|

Outro Chorus:
First after the bridge they play the normal chorus once, but after that its like this 
until the song end

    It's a miracle you walk the earth alone it's a miracle i stand a side you
E----------------------------------------------------------------------------|
B----------------------------------------------------------------------------|
G-11-------------------7---------------9----------------------7-----9--------|
D-11-------------------7--------7------9----------------------7-----9--------|
A-9--------------------5--------7------7----------------------5-----7--------|
E-------------------------------5--------------------------------------------|

   Your like a plague in a wide and open show you pass it on like i needed it most
E----------------------------------------------------------------------------|
B----------------------------------------------------------------------------|
G-11-----------------------7---------------9-------------------------7-------|
D-11-----------------------7--------7------9-------------------------7-------|
A-9------------------------5--------7------7-------------------------5-------|
E-----------------------------------5----------------------------------------|

b=bend 
br=release bend 
/=slide 
h=hammer on 
p=pull off
Show more