Crashdiet - Native Nature (Generation Wild)

D tuning/ one step down/ DGCFAD

Intro/vers:

E--------------------------------|-----------------------------|
B--------------------------------|-----------------------------|
G--------2--4/5/4-2--------2-----|--------2--4/5/4-2--------2--|
D--4-2-4-2--4/5/4-2--4-2-4-2--2--|--4-2-4-2--4/5/4-2--4-2-4-2--|
A--4-2-4-------------4-2-4----2--|--4-2-4-------------4-2-4----|
E--------------------------------|-----------------------------|

Vers

E-----------------------------------------------------------|
B-----------------------------------------------------------|
G----------------2-------------4----------------------------|
D--4-------------2-------------4-------------5--------------|
A--4-----------------------------------------5--------------|
E--2-2-2-2-2-2-2---2-2-2-2-2-2---2-2-2-2-2-2---2-2-2-2-2-2--|

E----------------------------------------------------------|
B----------------------------------------------------------|
G----------------2-------------4---------------------------|
D--4-------------2-------------4---------------------------|
A--4------------------------------------------3-3--3-2-0---|
E--2-2-2-2-2-2-2---2-2-2-2-2-2---2-2-2-2-2-2---------------|

Pre-Chorus:

Rollin down town meetin up a crowd the weel is spinning round Scream out loud
E-------------------------------------------------------------------------|
B-------------------------------------------------------------------------|
G-2--2----------------------------------2--2------------------------------|
D-2--2------------4--4--4-----4---------2--2------------------4--4-----4--|
A-0--0--2--3--4---4--4--4-----4---------0--0--2--3--4---------4--4-----4--|
E-----------------2--2--2--0--2-------------------------------2--2--0--2--|

But my head is stayin still as i bing on the can i know its going down the drain
E--------------------------------------------------------------------------|
B--------------------------------------------------------------------------|
G------2---2---------------------------------------------------------------|
D------2---2---------------------4--4--4-----4--4------2-------------------|
A------0---0---2--3--4-----------4--4--4-----4--4------2-------------------|
E--------------------------------2--2--2--0--2--2------0-------------------|

  we know its going down the drain...
E-----------------------------------|
B-----------------------------------|
G--4--4--4--4--4--4--4--4--4--4--4--|
D--4--4--4--4--4--4--4--4--4--4--4--|
A--2--2--2--2--2--2--2--2--2--2--2--|
E-----------------------------------|

Chorus:

 whats it got do do with you     dont mind about my bad behaviour
E-------------------------------------------------------------------|
B-------------------------------------------------------------------|
G----------------------------------9--9--9--9--9--9-----------------|
D-4--4--4--4--4--4--4--7--7--7--7--9--9--9--9--9--9--9--9--9--9--9--|
A-4--4--4--4--4--4--4--7--7--7--7--7--7--7--7--7--7--9--9--9--9--9--|
E-2--2--2--2--2--2--2--5--5--5--5--------------------7--7--7--7--7--|

 whats it got do do with you     if im crawling like an alligator
E-------------------------------------------------------------------|
B-------------------------------------------------------------------|
G----------------------7--7--7--7--9--9--9--9--9--9-----------------|
D-4--4--4--4--4--4--4--7--7--7--7--9--9--9--9--9--9--9--9--9--9--9--|
A-4--4--4--4--4--4--4--5--5--5--5--7--7--7--7--7--7--9--9--9--9--9--|
E-2--2--2--2--2--2--2--------------------------------7--7--7--7--7--|

  its native nature
E---------------------------------------------|
B---------------------------------------------|
G-----------------------2-4/5/4-2--------2----|
D-----------------4-2-4-2-4/5/4-2--4-2-4-2----|
A-----------------4-2-4------------4-2-4------|
E---------------------------------------------|

The rythm guitar in the solo is the same as the vers 

Bridge:

E--------------------------------------------------|
B--------------------------------------------------|
G--------2-4b-2--------2----------2-4b-2-------2---|
D--4-2-4---------4-2-4------4-2-4--------4-2-4-----|
A--------------------------------------------------|
E--------------------------------------------------|

/=slide
B=bend
Show more