Native Nature – CRASHDIET

Tabbed by: Joyous.93
Email:joyous.waldron@googlemail.com

Tuning: Drop D

This tab is the same as my guitar pro tab, but I thought it might be nice for people without the
program to be able to use it.
   

Opening riff

e|------------------------|--------------------|------------------------|--------------------|
B|------------------------|--------------------|------------------------|--------------------|
G|------------------------|--------------------|------------------------|---------0----------|
D|---------------------0--|---------0----------|---------------------0--|---------5----------|
A|---------5----7h8p7--5--|---------5----------|---------5----7h8p7--5--|--------------------|
E|7--5--7-----------------|7--5--7-------5-----|7--5--7-----------------|7--5--7-------------|

Play these 4 bars twice before vocals begin.
Vocals begin, repeat 4 bars twice more, the last time playing this instead:

e|------------------------|--------------------|------------------------|-----------------|
B|------------------------|--------------------|------------------------|-----------------|
G|------------------------|--------------------|------------------------|-----------------|
D|---------------------0--|---------0----------|---------------------0--|--------------2--|
A|---------5----7h8p7--5--|---------5----------|---------5----7h8p7--5--|--------------2--|
E|7--5--7-----------------|7--5--7-------5-----|7--5--7-----------------|--------------2--|

The last chord carries on into the next bar (the verse). I’m not sure how to write that on here,
but if you listen to the song I’m sure it’s fairly clear. The chord just has to start a half beat
before the start of the bar instead of starting on the first beat. This goes for the verses and 
prechorus, but not for the chorus. It’s pretty important to the rhythm of the song.


So. Verse riff (16th bar not included):

       PM-----------|         PM-----------|         PM-----------|         PM-----------|
e|-----------------------|----------------------|----------------------|----------------------|
B|-----------------------|----------------------|----------------------|----------------------|
G|-----------------------|----------------------|----------------------|----------------------|
D|--2-----------------5--|-------------------7--|-------------------3--|-------------------2--|
A|--2-----------------5--|-------------------7--|-------------------3--|-------------------2--|
E|--2--2--2--2--2--2--5--|----2--2--2--2--2--7--|----2--2--2--2--2--3--|----2--2--2--2--2--2--|

     PM-----------|         PM-----------|         PM------------|
e|----------------------|----------------------|----------------------|---------------------|
B|----------------------|----------------------|----------------------|---------------------|
G|----------------------|----------------------|----------------------|---------------------|
D|-------------------5--|-------------------7--|----------------------|------------------5--|
A|-------------------5--|-------------------7--|----------------------|------------------5--|
E|----2--2--2--2--2--5--|----2--2--2--2--2--7--|----2--2--2--2--2--8--|----8----8--7--5--5--|


Prechorus riff (similarly to in the verse, the chord from the previous bar carries on into the 
first bar of the prechorus):

e|----------------------|---------------------|----------------------|---------------------|
B|----------------------|---------------------|----------------------|---------------------|
G|----------------------|---------------------|----------------------|---------------------|
D|--5--7--8--9----9--0--|--2----0--2----2--5--|--5--7--8--9----9--0--|--2----0--2----2--5--|
A|--5--7--8--9----9--0--|--2----0--2----2--5--|--5--7--8--9----9--0--|--2----0--2----2--5--|
E|--5--7--8--9----9--0--|--2----0--2----2--5--|--5--7--8--9----9--0--|--2----0--2----2--5--|

e|----------------------|---------------------|-----------|----------|----------|----------|
B|----------------------|---------------------|-----------|----------|----------|----------|
G|----------------------|---------------------|-----------|----------|----------|----------|
D|--5--7--8--9----9--0--|--2----0--2----2--0--|-----------|----------|7---------|----------|
A|--5--7--8--9----9--0--|--2----0--2----2--0--|-----------|----------|7---------|----------|
E|--5--7--8--9----9--0--|--2----0--2----2--0--|-----------|----------|7---------|----------|


Chorus (chords now start on first beat of bar):

e|------------------------|------------------------|
B|------------------------|------------------------|
G|------------------------|------------------------|
D|2--2--2--2--2--2--2--2--|5--5--5--5--5--5--5--5--|
A|2--2--2--2--2--2--2--2--|5--5--5--5--5--5--5--5--|
E|2--2--2--2--2--2--2--2--|5--5--5--5--5--5--5--5--|

e|--------------------------------|------------------------|
B|--------------------------------|------------------------|
G|--------------------------------|------------------------|
D|12--12--12--12--12--12--12--12--|7--7--7--7--7--7--7--7--|
A|12--12--12--12--12--12--12--12--|7--7--7--7--7--7--7--7--|
E|12--12--12--12--12--12--12--12--|7--7--7--7--7--7--7--7--|

And repeat


Guitar fill:

e|------------------------|---------------------|
B|------------------------|---------------------|
G|------------------------|---------------------|
D|------------------------|------------------2--|
A|2--0--2--5----7h8p7--5--|2--0--2--3--------2--|
E|2--0--2--5----7h8p7--5--|2--0--2--3--------2--|


Second verse: Same as first verse except double the length.


Prechorus: As before


Chorus: As before


Guitar fill:

e|------------------------|---------------------|
B|------------------------|---------------------|
G|------------------------|---------------------|
D|------------------------|------------------0--|
A|2--0--2--5----7h8p7--5--|2--0--2--3--------0--|
E|2--0--2--5----7h8p7--5--|2--0--2--3--------0--|


Solo section rhythm part:

     PM------------|        PM------------|        PM------------|        PM------------|
e|----------------------|----------------------|----------------------|----------------------|
B|----------------------|----------------------|----------------------|----------------------|
G|----------------------|----------------------|----------------------|----------------------|
D|----0--0--0--0--0--3--|----0--0--0--0--0--5--|----0--0--0--0--0--8--|----0--0--0--0--0--0--|
A|----0--0--0--0--0--3--|----0--0--0--0--0--5--|----0--0--0--0--0--8--|----0--0--0--0--0--0--|
E|----0--0--0--0--0--3--|----0--0--0--0--0--5--|----0--0--0--0--0--8--|----0--0--0--0--0--0--|

     PM------------|        PM------------|        PM------------|
e|----------------------|----------------------|----------------------|--------------------|
B|----------------------|----------------------|----------------------|--------------------|
G|----------------------|----------------------|----------------------|--------------------|
D|----0--0--0--0--0--3--|----0--0--0--0--0--5--|----0--0--0--0--0-----|-----------------2--|
A|----0--0--0--0--0--3--|----0--0--0--0--0--5--|----0--0--0--0--0-----|-----------------2--|
E|----0--0--0--0--0--3--|----0--0--0--0--0--5--|----0--0--0--0--0--6--|----6---6--5--3--2--|

     PM------------|        PM------------|        PM------------|        PM------------|
e|----------------------|----------------------|----------------------|----------------------|
B|----------------------|----------------------|----------------------|----------------------|
G|----------------------|----------------------|----------------------|----------------------|
D|----2--2--2--2--2--5--|----2--2--2--2--2--7--|----2--2--2--2--2--3--|----2--2--2--2--2--2--|
A|----2--2--2--2--2--5--|----2--2--2--2--2--7--|----2--2--2--2--2--3--|----2--2--2--2--2--2--|
E|----2--2--2--2--2--5--|----2--2--2--2--2--7--|----2--2--2--2--2--3--|----2--2--2--2--2--2--|
 
     PM------------|        PM------------|        PM------------|
e|----------------------|----------------------|----------------------|--------------------|
B|----------------------|----------------------|----------------------|--------------------|
G|----------------------|----------------------|----------------------|--------------------|
D|----2--2--2--2--2--5--|----2--2--2--2--2--7--|----2--2--2--2--2-----|-----------------5--|
A|----2--2--2--2--2--5--|----2--2--2--2--2--7--|----2--2--2--2--2-----|-----------------5--|
E|----2--2--2--2--2--5--|----2--2--2--2--2--7--|----2--2--2--2--2--8--|----8---8--7--5--5--|


Prechorus: Repeat two bar riff twice. On the third time, it looks like this:

e|----------------------|---------------------|----------------|----------|----------|
B|----------------------|---------------------|----------------|----------|----------|
G|----------------------|---------------------|----------------|----------|----------|
D|--5--7--8--9----9--0--|--2----0--2----2--0--|------------10--|----------|----------|
A|--5--7--8--9----9--0--|--2----0--2----2--0--|------------10--|----------|----------|
E|--5--7--8--9----9--0--|--2----0--2----2--0--|------------10--|----------|----------|


Middle 8:

One guitar plays the opening riff: 

e|------------------------|--------------------|
B|------------------------|--------------------|
G|------------------------|--------------------|
D|---------------------0--|---------0----------|
A|---------5----7h8p7--5--|---------5----------|
E|7--5--7-----------------|7--5--7-------------|

Repeat twice, then the vocals join in. Repeat 4 times with vocals, but on the fourth repeat play:

e|------------------------|------------------------|------------------------|
B|------------------------|------------------------|------------------------|
G|------------------------|------------------------|------------------------|
D|---------------------0--|7--7--7--7--7--7--7--7--|7--7--7--7--7--7--7--7--|
A|---------5----7h8p7--5--|7--7--7--7--7--7--7--7--|7--7--7--7--7--7--7--7--|
E|7--5--7-----------------|7--7--7--7--7--7--7--7--|7--7--7--7--7--7--7--7--|


A second guitar plays:

e|0----------------|3----------------|2----------------|0----------------|
B|0----------------|3----------------|3----------------|2----------------|
G|0----------------|0----------------|2----------------|2----------------|
D|2----------------|0----------------|0----------------|2----------------|
A|2----------------|2----------------|-----------------|0----------------|
E|-----------------|-----------------|-----------------|-----------------|

Play once through before vocals start. Play twice through with vocals, but on the third repeat
play:

e|0----------------|3----------------|2----------------|------------------------|
B|0----------------|3----------------|3----------------|------------------------|
G|0----------------|0----------------|2----------------|------------------------|
D|2----------------|0----------------|0----------------|7--7--7--7--7--7--7--7--|
A|2----------------|2----------------|-----------------|7--7--7--7--7--7--7--7--|
E|-----------------|-----------------|-----------------|7--7--7--7--7--7--7--7--|

e|------------------------|
B|------------------------|
G|------------------------|
D|7--7--7--7--7--7--7--7--|
A|7--7--7--7--7--7--7--7--|
E|7--7--7--7--7--7--7--7--|


When vocals start, there is also a third part that plays:

e|-------------------------------|------------------------|
B|-------------------------------|------------------------|
G|------------12----14h15p14--2--|------------12----------|
D|14--12--14---------------------|12--14--12--------------|
A|-------------------------------|7---5---7---------------|
E|-------------------------------|------------------------|

This is repeated four times, but on the fourth, only the first bar of the two-bar riff is played.


End chorus: As before, but double the length


End riff: 

e|------------------------|-----------------------|
B|------------------------|-----------------------|
G|------------------------|-----------------------|
D|2--0--2--5----7h8p7--5--|2--0--2--3----0--0--0--|
A|2--0--2--5----7h8p7--5--|2--0--2--3----0--0--0--|
E|2--0--2--5----7h8p7--5--|2--0--2--3----0--0--0--|

Repeated four times



And that’s the end! I hope it’s clear and easy to follow. It’s not a hard song, though, so it
should be easy enough to play when you listen to it. Have fun!



********************
|                  |
| h   hammer-on    |
| p   pull-off     |
| PM  Palm mute    |
|                  |
********************
Show more