Crashdïet: Out of Line from Rest in Sleaze

Tuning
On the record: Half Step Down/ Eb
Live (2005 and onwards): One Step Down/ D Tuning/ DGCFAD

Intro:

Guitar 1
E----------------------------------------------------------------------|
B----------------------------------------------------------------------|
G---------------2--------------2--------------2-----------------7------|
D---------------2----5---------2----3---------2----5---------3--7--5---|
A------0-3-0----0----5---------0----3---------0----5---------3--5--5---|
E--0-3-------3-------3--------------1--------------3---------1-----3---|

Guitar 2
E---------------------------------------------------------------------|
B---------------10---8---------10---6---------10---8------------------|
G---------------9----7--7/9/7--9----5--5/7/5--9----7--7/9/7-----7-----|
D---------------7----5--5/7/5--7----3--3/5/3--7----5--5/7/5--3--7--5--|
A------0-3-0-------------------------------------------------3--5--5--|
E--0-3-------3-----------------------------------------------1-----3--|

Vers:
        A
got ya share of nuthin' stukk with nuthin'
                                      G
your mind idle, can't get the sleep
                                                A
the ground is shakin' and you wanna land fast
                                               
yer out of function lyin' flat on the street

         A
alwayz gotta be the first in 'da line
                              G     
a play with death to be no:1
                                                  A
cruzin' with the boyz in the trashed part of town
                                                  
raise my lust of madness when I'm feelin' down


Pre-chorus:

  drinks are flowin my heart is blowin, another nite in another town
E---------------------------------------------------------------------|
B---------------------------------------------------------------------|
G---------------------------------------------------------------------|
D--3--------------------5-----------------3---------------5-----------|
A--3--------------------5-----------------3---------------5-----------|
E--1--------------------3-----------------1---------------3-----------|

Chorus:

   ooh I love the taste of cyanide
E-------------------------------------|
B-------------------------------------|
G--2-------4-------5--------7---------|
D--2-------4-------5--------7---------|
A--0-------2-------3--------5---------|
E-------------------------------------|  x3

but somehoe I feel like Im fading out of line
E---------------------------------------|
B---------------------3-----------------|
G--2------------------2-----------------|
D--2--------5---------0--------3--------|
A--0--------5------------------3--------|
E-----------3------------------1--------|

Bridge/Solo Ryhm:

E----------------------------------------------|
B----------------------------------------------|
G----6----------2----------6-----------2-------|
D----6----------2----------6-----------2-------|
A----4----------0----------4-----------0-------|
E----------------------------------------------|

E------------------------------------------------------|
B------------------------------------------------------|
G-------4-----4-----4-----4------2-----2-----2-----2---|
D-------4-----4-----4-----4------2-----2-----2-----2---|
A---2-2-2-2-2-2-2-2-2-2-2-2--0-0-0-0-0-0-0-0-0-0-0-0---|
E------------------------------------------------------| x2

/ - Slide
Show more