Crashdiet - Overnight (The Unattractive Revolution)

D Tuning/ One Step Down/ DGCFAD

Intro (Guitar 1)

E-------------------------------------------------------------------|
A-------------------------------------------------------------------|
D-------------------------------------------------------------------|
G--12-11-9--------9----9-9--------12-11-9--------9----9-9--9-11-----|
B----------12--12---12-----10-10----------12--12---12-----------12--|
E-------------------------------------------------------------------|

(Guitar 2)

E------------------------------------------------------|
A------------------------------------------------------|
D-----------2-------4---------------------2-------4----|
G---5-------2-------4------5------5-------2-------4----|
B---5-------0-------2------5------5-------0-------2----|
E---3----------------------3------3--------------------|

Verse (Guitar 1)

E------------------------------|
A------------------------------|
D----------2--2---4--4--4--4---|
G---5--5---2--2---4--4--4--4---|
B---5--5---0--0---2--2--2--2---|
E---3--3-----------------------|

(Guitar 2)
Only in the end of the verse
E-------------------------------|
A---8--8---10-10--12-12-12-12---|
D---7--7---9--9---11-11-11-11---|
G---5--5---7--7---9--9--9--9----|
B-------------------------------|
E-------------------------------|

Pre-Chorus
  
E---------------------|
A---------------------|
D---6---4---2---4-----|
G---6---4---2---4-----|
B---4---2---0---2-----|
E---------------------|

Chorus

E------------------------------------------------------|
A------------------------------------------------------|
D-----------2-------4---------------------2-------4----|
G---5-------2-------4------5------5-------2-------4----|
B---5-------0-------2------5------5-------0-------2----|
E---3----------------------3------3--------------------|

Bridge
(i only know the second part)
E--------------------------------|
A--------------------------------|
D-------4---------4---------4----|
G---2---4-----2---4-----2---4----|
B---2---2-----2---2-----2---2----|
E---0---------0---------0--------|
and so on...

Solo rythm is the sam as the chorus
Show more