Artist:Crashdiet
Song:Riot In Everyone
Album:Rest In Sleaze
Bassist:Peter London
Tabber:Dev Fuld

I recieved a request for this song, and it's one killer tune. I'm pretty sure this is 
correct, this is how I play it...

Key:
* = Let It Ring

Intro
Gb:--------|--------|--------|--------|--------|--------|
Db:--------|--------|--------|--------|--------|--------|
Ab:--------|--------|--------|--------|--------|--------|
Eb:00000000|00000000|00000000|00000000|00000000|00000000|

Gb:--------|--------|--------|--------|--------|--------|
Db:--------|--------|--------|--------|--------|--------|
Ab:--------|--------|--------|--------|--------|--------|
Eb:00000000|00000000|00000000|00000000|00000000|00000000|

Gb:--------|--------|--------|--------|--------|--------|
Db:--------|--------|--------|--------|--------|--------|
Ab:--------|--------|--------|--------|--------|--------|
Eb:00000000|00000000|00000000|00000000|00000000|00000000|

Gb:--------|----|
Db:--------|----|
Ab:--------|----|
Eb:00000000|0000|

*Break*

Verse
Gb:--------|--------|--------|--------|--------|--------|
Db:--------|--------|--------|--------|--------|--------|
Ab:--------|--------|--------|--------|--------|--------|
Eb:00000000|00000000|00000000|00000000|00000000|00000000|

Gb:--------|--------|--------|--------|--------|--------|
Db:--------|--------|--------|--------|--------|--------|
Ab:--------|--------|--------|--------|--------|--------|
Eb:00000000|00000000|00000000|00000000|00000000|00000000|

Gb:--------|--------|--------|--------|
Db:--------|--------|--------|--------|
Ab:--------|--------|--------|--------|
Eb:00000000|00000000|00000000|00000000|

Pre-Chorus
Gb:-------|--------|--------------|
Db:2*-----|--------|--------------|
Ab:---3*--|5*-3*--3|5*-3*-55555555|
Eb:-------|--------|--------------|

Chorus
Gb:-------------5*------7*---------------|
Db:-----2*----5-------7------------------|
Ab:---2----3*------5*---------7-5--------|
Eb:0*----------------------5------7-5-3-2|

Gb:-------------5*------7*---------|
Db:-----2*----5-------7------------|
Ab:---2----3*------5*------66666666|
Eb:0*------------------------------|

Gb:-------------5*------7*---------------|
Db:-----2*----5-------7------------------|
Ab:---2----3*------5*---------7-5--------|
Eb:0*----------------------5------7-5-3-2|

Gb:--------------------------|
Db:--------------------------|
Ab:3333333333333333-555555555|
Eb:--------------------------|

After Chorus
Gb:--------|--------|--------|-|
Db:--------|--------|--------|-|
Ab:--------|--------|--------|-|
Eb:00000000|00000000|00000000|0|

Verse

Pre-Chorus 2
Gb:-------|-------|--------------|
Db:2*-----|-------|--------------|
Ab:---3*--|5*-3*--|5*-3*-55555555|
Eb:-------|-------|--------------|

Chorus

Bridge
Gb:--------------------|
Db:--------------------|
Ab:7*----5*----3*-2*---|
Eb:---7*----5*-------0*|

Solo
Gb:--------|--------|--------|--------|--------|--------|
Db:--------|--------|--------|--------|--------|--------|
Ab:--------|--------|--------|--------|--------|--------|
Eb:55555555|55555555|55555555|55555555|55555555|55555555|

Gb:--------|--------|
Db:--------|--------|
Ab:--------|--------|
Eb:55555555|55555555|

Gb:--------|-----|-----------------------------|
Db:--------|-----|---------------------22222222|
Ab:--------|-----|--2-3333333333333333---------|
Eb:00000000|00000|5----------------------------|

Gb:-----------------------------|
Db:-----------------------------|
Ab:33333333-55555555-66666666---|
Eb:---------------------------0*|

Last Verse
Gb:--------------|--------------|--------------|--------------|
Db:--------------|--------------|--------------|--------------|
Ab:----3*--5*----|----3*--5*----|----3*--5*----|----3*--5*--6*|
Eb:0*----------5*|0*----------5*|0*----------5*|0*------------|

End
Gb:-------------5*------7*---------------|
Db:-----2*----5-------7------------------|
Ab:---2----3*------5*---------7-5--------|
Eb:0*----------------------5------7-5-3-2|

Gb:-------------5*------7*---------------|
Db:-----2*----5-------7------------------|
Ab:---2----3*------5*---------7-5--------|
Eb:0*----------------------5------7-5-3-2|

Gb:-------------5*------7*---------------|
Db:-----2*----5-------7------------------|
Ab:---2----3*------5*---------7-5--------|
Eb:0*----------------------5------7-5-3-2|

Gb:-------------5*------7*---------------|
Db:-----2*----5-------7------------------|
Ab:---2----3*------5*---------7-5--------|
Eb:0*----------------------5------7-5-3-2|

Gb:--------|--------|--------|--------|--------|--------|
Db:--------|--------|--------|--------|--------|--------|
Ab:--------|--------|--------|--------|--------|--------|
Eb:00000000|00000000|00000000|00000000|00000000|00000000|

Gb:--------|--------|
Db:--------|--------|
Ab:--------|--------|
Eb:00000000|00000000|

Gb:--------|--------|--------|--------|
Db:--------|--------|--------|--------|
Ab:77777777|77777777|77777777|77777777|
Eb:--------|--------|--------|--------|

Gb:-------------------------------------|
Db:-------------------------------------|
Ab:3333333333333333-5555555555555555----|
Eb:----------------------------------0-0|

There ya go! Fairly easy, not too hard. It's in the correct tuning, and it's also in 
order. Any questions or comments, e-mail me at rocklvson@yahoo.com
Show more