intro/verse/stick
|--------------------------------------------------------|
|--------------------------------------------------------|
|-----------5-5-7-7-9-9----5-5-7-7-----------------------|
|-------2---5-5-7-7-9-9----5-5-7-7-----------------------|
|-------2---3-3-5-5-7-7----3-3-5-5-----------------------|
|-0-0-0-0------------------------------------------------|

bridge
|---------|
|---------|
|---7-5---|
|---7-5---|
|---5-3---|
|---------| 3 times

chorus
|------------------------------------------------------|
|------------------------------------------------------|
|------5---7-------------------------------------------|
|--2---5---7-------------------------------------------|
|--2---3---5-------------------------------------------|
|--0---------------------------------------------------|


 I work on the solo
Show more