-------------------------------------------------------------------------------
			     Riot In Everyone - Crashdiet
-------------------------------------------------------------------------------
Tabbed by:Glamman
Email:sam_blinkdude@hotmail.com

Tuning:Half step down from E
                                     Hey cheers for checking my tab
                                     I noticed no one had tabbed it propa
                                     so I thought I would do it. enjoy :)


Intro rythm
e|-------------------------------------------------------------------------------------|
B|-------------------------------------------------------------------------------------|
G|--------------5-----7----------------------------------------------------------------|
D|------2-------5-----7----------------------------------------------------------------|
A|------2-------3-----5----------------------------------------------------------------|
E|--000-0---000-----0------------------------------------------------------------------|

intro lead
e|----------------------------------------------------------|
B|----------------------------------------------------------|
G|---12-12-12--12-11/12\11---12--12---9-------12---14---16--|
D|----------------------------------------X2----------------|
A|---10-10-10--10--9/10\9----10--10---7-------10---12---14--|
E|----------------------------------------------------------|
Verse lead
e|-------------------------------------------------------------------------------------|
B|-------------------------------------------------------------------------------------|
G|------------5----7-------------------------------------------------------------------|
D|-----2------5----7-------------------------------------------------------------------|
A|-----2------3----5-------------------------------------------------------------------|
E|-000-0--000----0---------------------------------------------------------------------|

Verse rythm comes in on 3rd n 4th time
e|------------------------------------------------------------------|
B|------------------------------------------------------------------|
G|------------------------------------------------------------------|
D|------------------------------------------------------------------|
A|------------------------------------------------------------------|
E|--00000000000000000000000000000000000000000000000000000000000000--|


bridge
e|------------------------------------------------------------------------------------|
B|------------------------------------------------------------------------------------|
G|---9--5--7--5--7--5----7------------------------------------------------------------|
D|---9--5--7--5--7--5----7------------------------------------------------------------|
A|---7--3--5--3--5--3----5------------------------------------------------------------|
E|------------------------------------------------------------------------------------|
chorus
e|---------------------------------------------------------------------------|
B|---------------------------------------------------------------------------|
G|--------5-5--7-7---------------5-5--7-7--8-8--9-9--5-5--7-7-------5-7--7---|
D|---2-2--5-5--7-7--7-7--5--2-2--5-5--7-7--9-9--9-9--5-5--7-7--7-7--5-7--7---|
A|---2-2--3-3--5-5--7-7--5--2-2--3-3--5-5--6-6--7-7--3-3--5-5--7-7--3-5--5---|
E|---0-0------------5-5--3--0-0--------------------------------5-5-----------|

2nd verse intro
e|----------------------------|
B|----------------------------|
G|----------------------------|
D|----------------------------|
A|----------------------------|
E|-0000000000000000000000000--|

2nd verse
e|---------------------------------------------------------------------------------|
B|---------------------------------------------------------------------------------|
G|---------------5---7-------------------------------------------------------------|
D|---------------5---7---X2--------------------------------------------------------|
A|---------------3---5-------------------------------------------------------------|
E|-------------0---0---------------------------------------------------------------|

bridge before solo
e|------------------------------------------------------------------------------------|
B|------------------------------------------------------------------------------------|
G|--9----7----5-4---------------------------------------------------------------------|
D|--9-9--7-7--5-4-2-------------------------------------------------------------------|
A|--7-9--5-7--3-2-2-------------------------------------------------------------------|
E|----7----5------0-------------------------------------------------------------------|

solo
e|----------(5)--------|--17---17-----19b-----17h19p17----17---------------|
B|-(5)---(5)---(5)-----|--20b--20b---------------------20----20--17--20----|
G|----(5)---------(5)--|---------------------------------------------------|
D|---------------------|---------------------------------------------------|
A|---------------------|---------------------------------------------------|
E|---------------------|---------------------------------------------------|

e|---------------------------------------------------------------------------|
B|--17--------------20-------------------------------------------------------|
G|------20-19-17--------17--19b~~--------------------------------------------|
D|---------------19----------------------------------------------------------|
A|---------------------------------------------------------------------------|
E|---------------------------------------------------------------------------|

e|-------17-------15-------17-------15----------15--------------------------|
B|--15------15-13----13-15----15-13----13-13-------15b----------------------|
G|-------------------------------------------14-----------------------------|
D|--------------------------------------------------------------------------|
A|--------------------------------------------------------------------------|
E|--------------------------------------------------------------------------|

e|--------------15-------------------------------------------------------------|
B|--15-13----13----13-15b------------------------------------------------------|
G|--------14-------------------------------------------------------------------|
D|-----------------------------------------------------------------------------|
A|-----------------------------------------------------------------------------|
E|-----------------------------------------------------------------------------|

e|---------------------------(7)-----19b-19------22b~~----------------------|
B|----------------------------------------------------------------------------|
G|----------------(7)-----(5)-----------------------------------------------------|
D|--9-------------------------------------------------------------------------|
A|----------------------------------------------------------------------------|
E|----------------------------------------------------------------------------|

e|--17b--15--17-------------------------------------------------------------|
B|----------------------------------------------------------------------------|
G|----------------------------------------------------------------------------|
D|----------------------------------------------------------------------------|
A|----------------------------------------------------------------------------|
E|----------------------------------------------------------------------------|


e|----------------------------------------------------------------------|
B|--15b--15b-15p12h15-12-----12--------------12-------------------------|
G|------------------------14----14p12--14b------14p12-------------------|
D|----------------------------------------------------14p12-------------|
A|----------------------------------------------------------14p10-12p10-|
E|----------------------------------------------------------------------|


e|--12---------------------------------------------------------------------|
B|--12---------------------------------------------------------------------|
G|-------------------------------------------------------------------------|
D|-------------------------------------------------------------------------|
A|-------------------------------------------------------------------------|
E|-------------------------------------------------------------------------|


solo rhytm
e|-----------------------------------------------------|
B|---------8------6------5-8--------8------6------5-6--|
G|--2------7------5------4-7-2------7------5------4-5--|
D|--2------5------3------2-5-2------5------3------2-3--|
A|--000000--00000--00000-----000000--00000--00000------|
E|-----------------------------------------------------|

e|--------------------------------------------------------------------------------------|
B|--------------------------------------------------------------------------------------|
G|----------5-----2-5-7-8-9\------------------------------------------------------------|
D|--2-------5-----2-5-7-9-9\------------------------------------------------------------|
A|--2-------3-3-2-0-3-5-6-7\------------------------------------------------------------|
E|--0-0-2-3-----------------------------------------------------------------------------|

bridge after solo
e|---------------------------------|
B|---------------------------------|
G|------5--7--------5--7--8-9------|
D|--2---5--7--7--2--5--7--9-9--X2--|
A|--2---3--5--7--2--3--5--6-7------|
E|--0---------5--0-----------------|

| /  slide up
| \  slide down
| h  hammer-on
| p  pull-off
| ~  vibrato
|()  harmonic
| x  Mute note
===============================================================================
Show more