• Song:

    Badge

  • Artist:

    Cream

  • Album:

    Cream Gold (disc 1)

BAND: Cream
SONG: Badge

INTRO:

G|---------------------------------------------|
D|---------------------------------------------|
A|-------3---7---3/5-5-5-5-5---------3---7---3/|
E|---5-----------------------3h4h5-------------|

VERSE 1:
--------

G|------------------------------------------------------------------|
D|------------------------------------------------------------------|
A|-/5-5-5-5-5----------3------7-------3/5-5---5---5----5--------5h6h|
E|-------------2-3h4h5----------------------------------------------|

G|---------------------------------------------------------|
D|---------------------------------------------------------|
A|-h7-7-7-7-7-7---5h6h7-7-7-7-5-3-2------3------7--------3/|
E|-----------------------------------5---------------------|

G|-----------------------------------------------------9-7-5-4-----------|
D|-------------------------------------------------------------7-5-4-----|
A|-/5-5---5----5----5--------5h3hh7-7-7-7-7-7---5h6hh7---------------7-5-|
E|-----------------------------------------------------------------------|

G|----------------------------------------------------------------4-----------|
D|--------------------------------------------------------------4-------------|
A|-3-3---------3-----------------0----0--------0--------------2-------2---2-0-|
E|---------3--------3---------0----0-------0--------------2---------2---2-----|

VERSE 2:
-------

G|---------------------------------------------|
D|---------------------------------------------|
A|----------------------------3------7-------3/|
E|--(0)-----------0-3-4---5--------------------|

G|-----------------------------------------------------------------|
D|-----------------------------------------------------------------|
A|-/5-5-5----5----5-------5h6h7-7-7-7-7-7---5h6hh7-7-7-5-6-7-5-3-2-|
E|-----------------------------------------------------------------|

G|-----------------------------------------------------------------------------|
D|-----------------------------------------------------------------------------|
A|-----3------7------------5------5----5----5-----------5h6h7-7-7-7-7-7---5h6h-|
E|-5--------------------5------------------------------------------------------|

G|----9-7-5-4--------------------------------------------------------2-----------|
D|------------7-5-4---------------------------------------------2----------------|
A|-h7---------------7-5---3--------3---------3-------0-----0---------------------|
E|-------------------------------3------3----------------0---------------------2-|

G|-----4----------------|
D|---4------------------|
A|-2-------2---2-0----0-|
E|-------2---2----------|

BRIDGE:
------

G|------------|--------------|-------------|
D|----R-------|----R---------|----R--------|
A|------------|--------------|-------------|
E|------------|--------------|-------------|

G|---------------------------------------------------------------------------|
D|---------------------------------------------------------------------------|
A|------------3--------3--------2---2----------5-----------5-5---------3-----|
E|----------------------------------------3----------------------------------|




G|-------------------------------------------------------------------------|
D|-------------------------------------------------------------------------|
A|--(3)---------2-----2---------5-5----5-------3--------3-------2---2------|
E|------------------------3----------------------------------------------3-|

G|-----------------------------------------------------------------------------------|
D|-----------------------------------------------------------------------------------|
A|-5-5--5-----5----5---5-5-3--------3----------2---2--------------5-5-5-5-5-5----5-3-|
E|----------------------------------------------------3------------------------------|

GUITAR SOLO:
-----------

G|------------------------------------7-7------------------------------|
D|---------------------------------------------------------------------|
A|--(3)----------2----2-------3-4---5-----3-4-5-5-5-3----3-2-2-----3-4-|
E|-----------------------3---------------------------------------3-----|

G|-----7-7-7----------------------------------------7-7---7-7---7-7-------------|
D|-----------7------------------------------------------------------------------|
A|-5-5---------5-3--------3-3-3-2-2-2---(3)-(4)---5-----------------5-5-5-3-----|
E|------------------------------------3-----------------------------------------|

G|-----------------------------------------------------------|
D|--------------------X/7--X/7-5-4---------------------------|
A|--(3)-2-2--------5---------------5-3--------3-3-3-2-2------|
E|-------------3-------------------------------------------3-|

G|-------7-7-7-5-----------------------------------(5)-7-7-5-----------|
D|-----7---------7-5-3-------------------------(7)-----------7-5-3-----|
A|-5-5-----------------5-3----3-3-2-2------5-----------------------5-3-|
E|-------------------------------------3-------------------------------|

G|------------------------------------------------|
D|------------------------------------------------|
A|--(3)-3-3-2-2-2-0-----5-5-5-5-3-----3-3-3-2-2---|
E|------------------3---------------------------3-|

VERSE 3:
-------

G|------------------------------------------------------------5-7-----------|
D|-----------------------5---5-7------------------------5-7---------5-7-----|
A|-5-5-5-5-5-4-3-2---0-7------------0--------5----------------------------5-|
E|--------------------------------------------------------------------------|

G|--------------------------------------------------------------|
D|-----------------------------------------------5-6-7----------|
A|-7----7-7-7-7-7---2/7-7-7-7-7-5------------7------------------|
E|-----------------------------------8-7---5-------------5------|

G|---------------5-7----------------------------------9-7-5-4---------|
D|---------5-7----------5-7-----------------------------------7-5-----|
A|-5------------------------5-----7-7-7-7-7-7---2/7-7-------------7-5-|
E|--------------------------------------------------------------------|

G|----------------------------------------------------------------------------------|
D|----------------------------------------------------------------------------------|
A|-3-------3---------------0-----0---------0-------------------2-2-2---2---2-0----0-|
E|-----3---------3-----0-------0-------0----------------2------------2---2----------|


Thanks to Eric Clapton + George Harrison who created this brilliant song.
Show more