• Song:

    Sunshine Of Youe Love

  • Artist:

    Cream

CREAM

Sunshine of Your Love

by Eric Clapton, Jack Bruce, and Pete Brown

tabbed by:overlord25

Standard tuning

Intro 1
 
e-------------------------------------------------------
B-------------------------------------------------------
G-------------------------------------------------------
D-12---12---10---12-------------------------------------
A-----------------------12-----11----10--------8b-------
E-------------------------------------------10----10-10-

Intro 2            
e-----------------------------------------------------
B-----------------------------------------------------
G-----------------------------------------------------
D-12---12---10---12-----------------------------------
A-----------------------12-----11----10---------8b----
E-------------------------------------------10-----10-
   
 Verse 1
   D7  D7   C7 D7               G  F
e---------------------------------------------------
b------------------------------12--10---------------
g--11--11---9--11--------------12--10h11p10h11------
d--10--10---8--10--------------12--10-----------12--
a--12--12--10--12--12--11--10-----------------------
E--10--10---8--10-----------------------------------


Verse 2
   D7  D7   C7 D7
e---------------------------------------------------
b---------------------------------------------------
g--11--11---9--11-----------------------------------
d--10--10---8--10-----------------------------------
a--12--12--10--12--12--11--10------8h9p8h9----------
e--10--10---8--10--------------10----------10-------


Bridge 
   G    G   F  G
e---------------------------------------------------
b--12--12--10--12-----------------------------------
g--12--12--10--12-----------------------------------
d--12--12--10--12--12--11--10-------8b--------------
a--10--10---8--10--------------10------10-----------
E--10--10---8--10-----------------------------------



Chorus 1

   A                                   C           G
e|-0---0-0---------------------------|-------------3----------|
B|-2---2-2---------------------------|-5-----------3----------|
G|-2---2-2---------------------------|-5-----------4----------|
D|-2---2-2---------------------------|-5-----------5----------|
A|-0---0-0---------------------------|-3-----------5----------|
E|-----------------------------------|-------------3----------|


Chorus 2
   A                                   C           G
e|-0---0-0---------------------------|-------------3-----------|
B|-2---2-2---------------------------|-5-----------3-----------|
G|-2---2-2---------------------------|-5-----------4-----------|
D|-2---2-2---------------------------|-5-----------5-----------|
A|-0---0-0---------------------------|-3-----------5-----------|
E|-----------------------------------|-------------3-----------|

 A
e|-0---0-0-----0-0-----0-0---0|-0-----0-0-0---0-0---0---0------|
B|-2---2-2-----2-2-----2-2---2|-2-----2-2-2---2-2---2---2------|
G|-2---2-2-----2-2-----2-2---2|-2-----2-2-2---2-2---2---2------|
D|-2---2-2-----2-2-----2-2---2|-2-----2-2-2---2-2---2---2------|
A|-0---0-0-----0-0-----0-0---0|-0-----0-0-0---0-0---0---0------|
E|----------------------------|--------------------------------| 


Chorus 3

   A                                   C           G
e|-0---0-0---------------------------|-------------3----------|
B|-2---2-2---------------------------|-5-----------3----------|
G|-2---2-2---------------------------|-5-----------4----------|
D|-2---2-2---------------------------|-5-----------5----------|
A|-0---0-0---------------------------|-3-----------5----------|
E|-----------------------------------|-------------3----------|

   A
e|-0---0-0-----0-0-----0-0---0|-0-----0-0-0---0-0---0---0------|
B|-2---2-2-----2-2-----2-2---2|-2-----2-2-2---2-2---2---2------|
G|-2---2-2-----2-2-----2-2---2|-2-----2-2-2---2-2---2---2------|
D|-2---2-2-----2-2-----2-2---2|-2-----2-2-2---2-2---2---2------|
A|-0---0-0-----0-0-----0-0---0|-0-----0-0-0---0-0---0---0------|
E|----------------------------|--------------------------------|



SOLO: 
E-------------------------------------------------------
B---------------------------12--------------------------
G----12--12B~~~~------12-14----12B--12B--12--12B~~~~----
D-------------------------------------------------------
A-------------------------------------------------------
E-------------------------------------------------------

E-------------------------------------------------------
B------------------------10-----------------------------
G---9b--(9)--7--9---7----9B--------7~~~-----------------
D-------------------------------------------------------
A-------------------------------------------------------
E-------------------------------------------------------
                                     
E-------------------------------------------------------
B--------------10---10---10-----------------------------
G-------7h9----9B---9B---9B---(9)---7h9p7---7~~~--------
D---7h9-------------------------------------------------
A-------------------------------------------------------
E-------------------------------------------------------
                                                            
E-------------------------------------------------------------
B-------------------------------------------------------------
G-10Bb--10Bb--10Bb-10Bb-10~~~-10Bb-----9Bb-----7----9B--------
D-----------------------------------11------9-----------------
A-------------------------------------------------------------
E-------------------------------------------------------------


E--------------------------------------------------------------
B--------------------------------------------------------------
G-----7h9-10------7--9B--9Bb--9b--7--9--7h9--7~~~--------------
D-7h9---------9------------------------------------------------
A--------------------------------------------------------------
E--------------------------------------------------------------

                   
E--------------------------------------------------------------
B11/13---------------------------------------------------------
G12/14--12-10-11----10-------------10h11~~~--------------------
D----------------12------12-10-12------------------------------
A--------------------------------------------------------------
E--------------------------------------------------------------


E-10-----------------------------------------------------------
B-10----------------13-----------------------------13----------
G----10----10-12B------12b-(12)12--10------10--12B----12-10~~~-
D-------12------------------------------12---------------------
A--------------------------------------------------------------
E--------------------------------------------------------------

E--------10---------------------------------------------------------
B-----10------------------------------------------------------------
G-12B---------12b---(12)p10-----10-------------------------10----10-
D---------------------------12------12---------10----10-10h12-10h12-
A---------------------------------------12--10h12-10h12-------------
E-------------------------------------------------------------------


E--------------------------------------------------------------------------
B-10--12--------13----13--13h15--13---------------------------13--15B-13-15
G-10--12--12/14----14----------------1412-10-12p10-12B-12/14--------------
D--------------------------------------------------------------------------
A--------------------------------------------------------------------------
E--------------------------------------------------------------------------


E-13----------------------------------------------------------------------
B-13-13---------------------------13131313--------------------------------
G-------1412-10----1012p10-12/14----------1412-10bb---------------------
D----------------12-----------------------------------12p10----10h12~~~~--
A-----------------------------------------------------------12------------
E-------------------------------------------------------------------------


Index
Bb-1 1/2 bend
B-full bend
b- half bend
bb-1/4 bend
h-hammer on
p-pull off
(9)-ghost note
~-vibrato
-slide up
/-slide down

Song Order:

Intro 1 X1

Intro 2 X1

Verse 1 X6

Bridge X2 

Verse 2 X2

Chorus 1 X2

Chorus 2 X1

Verse 1 X5

Bridge X2

Verse 1 X2

Chorus 1 X2

Chorus 2 X1

SOLO  The Riffs that are played in the background:
Verse 2 X5
Bridge X2
Verse 2 X2
Chorus 1 X2
Chorus 2 X1

Verse 2 X1

Verse 1 X5

Bridge X2

Verse 1 X2

Chorus 1 X4

Chorus 3 X1
Show more