• Song:

    Sunshine of Your Love

  • Artist:

    Cream

  • Album:

    I Feel Free - Ultimate ...

Sunshine of Your Love

^:bend string up.

Verse:
e------------------------------4x
b------------------------------
g------------------------------
d-12-12-10-12------------------
a-------------12-11-10----8^---
e----------------------10----10

e-----------------------------2x then repeat bar above then play the chorus.
b-----------------------------
g-12-12-10-12-----------------
d-------------12-11-10----8^--
a----------------------10---10
e-----------------------------

Chorus:
e-------------4x then go back to the verse.
b-------------
g-------------
d---------5---
a-7--7-7--3--5
e-5--5-5-----3


It's my best creation:)
Show more