• Song:

    Tales Of Brave Ulysses

  • Artist:

    Cream

  • Album:

    Cream (disc 2)

Song: Tales of Brave Ulysses
Band: Cream
Bassist: Jack Bruce
Tuning: (standard)-EADG

Intro:

G-7--7\5--5\4--4\3--5-|-7--7\5--5\4--4\3--5----|
D---------------------|------------------------|
A---------------------|------------------------|
E---------------------|------------------------|

Verse:

G------------------------------|
D------------------------------|
A-5--5--3--3-3-2--2--2-1--3----|
E------------------------------|

Verse with variation:

G----------------------------------------|
D----------------------------------------|
A-5--5-5-------------------1--1--3--3----|
E----------1-1-1-2-3-3-3-3---------------|

Chorus:

G-------------------------|---------------------------------|--------------|
D-------------------------|---------------------------------|--------------|
A-0-0-0-0-0-0-0-0-0-0-0-0-|-5-5-3-3-0-0-0-0-0-0-0-0-0-0-0-0-|-5-5-3-3-5----|
--------------------------|---------------------------------|--------------|

That's basically all of the parts to the song.
Show more