• Song:

    Sunshine Of Your Love

  • Artist:

    Creameric Clapton)

==============================================  
  
Standard Tuning
  (E,A,D,G,B,e)

===============================================
  e|----------------------------------|
  B|----------------------------------|
  G|----------------------------------| x6
  D|-12-12-10-12----------------------|
  A|--------------12-11-10------------|
  E|------------------------10-13-10--|


  e|---------------------------------|
  B|---------------------------------|
  G|-12-12-10-12---------------------|
  D|--------------12-11-10-----------|
  A|-----------------------10-13-10--|
  E|---------------------------------|


  e|--------------------------------|
  B|--------------------------------|
  G|--------------------------------|
  D|-12-12-10-12--------------------|
  A|-------------12-11-10-----------|
  E|----------------------10-13-10--|


  e|-----------------|
  B|-----------------|
  G|-----------------| x3
  D|-----------------|
  A|-7--7-7--10--5---|
  E|-5--5-5---8--3---|


  e|-----------------------------|
  B|-----------------------------|
  G|-----------------------------|
  D|-----------------------------|
  A|-7-77-77-77-77-77-77-77-77---|
  E|-5-55-55-55-55-55-55-55-55---|

		Back to begining of song
================================================
Show more