• Song:

    Frustration

  • Artist:

    Crease

  • Album:

    Vindication

Artist: Crease
Album: Vindication
Song: Frustration
Tuning: Standard
Email: gitarkid@hotmail.com

Intro/Outro
----------------------------------------------
----------------------------------------------
---------------------3-3----------------------
---5-5--------------1-1----5-5----------------
--3-3--6-6/--3-3----------3-3----6-6--3-3--888
------4-4---1-1-----------------4-4--1-1---666

-------------------------------------------
-------------------------------------------
-------------------------------------------
-5------------------------------x-8-x-8----
-3-X's8--5-X's8---6-X8--3-x's8--x-6-x-6----
---------3--------4-----1------------------
im working on the chorus, sowwy, email me back when u read this, i might 
have it by then

----------------------------
----------------------------
----------------------------
-5-5-XX------5-5-x----------
-3-3-XX-5-6--3-3-x-5-5-6-3--
--------3-4--------3-3-4-1--
Show more