• Song:

    Making Progress

  • Artist:

    Crease

  • Album:

    Vindication

Song: Making Progress
Band: Crease
Album: Vindication
Tunning: Standard
Email: gitarkid@hotmail.com

()= bass notes

Main Chorus
------------------
------------------
------------------
------------------
-7-7--5-5--7-8-7--
-5-5--3-3--5-6-5--

Punkish Chorus
---------------------------------
---------------------------------
---------------------------------
---------------------------------
-7-7-7-7-7-7-7-7-5-5-5-5-5-5-5-5-
-5-5-5-5-5-5-5-5-3-3-3-3-3-3-3-3-

Other Thing
----------------------------
----------------------------
----------------------------
----------------------------
-7-7------------------------
-5-5--(3)-(3)--(5)-(6)-(5)--

Siren sounding thing
this actually is hard to recreate, what fritz is doing is
alternating strings, high e and b, he starts at the 12th
fret and works his way to the headstock.  The next one, is the same thing
but ill tab it out for ya.

------------------ those are elevens not ones
-11--11-----------
---11--11---------
------------------
------------------
------------------
and so on, those are elevens not ones
i havent got the weird background noise thing he makes at one point,
but gimme credit ive only haerd the song, maybe 10 times.
Show more