Im not sure if this really is Tool or Creed,
but this is what I downloaded the song under.

Chords:
	EADGBe	
    Em  022000
     G  320033
     D  x00232
     C  x32010

Chorus and Verse:
   Em  G  D  C 
   Em  G  D  G


Solo:      
e-------------------------------------------------------------------
B-------------------------------------------------------------------
G-------------------------------------9-7-------7h9p7---------------
D--8b----8p7-7--7-7-7-5-5---2h5---2-2-----------------8p7p5---------
A-------------------------------------------------------------------
E-------------------------------------------------------------------

e-------------------------------------------------------------------
B-------------------------------------------------------------------
G-------------------------------------------------------------------
D-2h5-7-8p7p5---7-5-2-0---2b-0---0h2p0------------------------------
A--------------------------------------1h0-0------------------------
E--------------------------------------------3-3--2-2-2-2-3---------                                 ^Not sure about this part ^
Show more