band- creed
song-  arms wide open
tabbed by- shwingin56


   intro and verse  (mark fingerpicks this)  
   Fig.1
   |---------------------------------------------------------------------------------
   |---0h1-------------1-----------1h3-------0h1h0----0h1--------------3-----1-------
   |---------0--------------0-------------------------------0----------0---------0---
   |-------------0---------------------------------------------0---------------------
   |---3------------3------------3--------3-----------2------------2-------2---------
   |---------------------------------------------------------------------------------
   
   
   |---------------------------------------------------------------------------------
   |--0h1------------1-----------0h1h0-----------0---------0h1-----------1---------0-
   |--------0------------0---------------0----------0------------0-----------0-------
   |----------0----------------------------0------------------------0----------------
   |--0---------0-------------0--------------0---------0---0----------0---------0----
   |---------------------------------------------------------------------------------
   
   |------------------------------
   |-------------0---------------
   |--0--------------0-----------
   |-----0-----------------------
   |--------0-------------0-------
   |------------------------------
   1st chorus:clean: strum lightly
 ..open             
   |------------------------3--3-3-3-3--3-3-3-3------------------------------5-5-5-5-
   |-6-6--6--6-6-6-6--------3--3-3-3-3--3-3-3-3--5--5--5-5-5-5--5-5-5--5--5--5-5-5-5-
   |-5-5--5--5-5-5-5--x-5---5--5-5-5-5--5-5-5-5--4--4--4-4-4-4--4-4-4--4--4--7-7-7-7-
   |-3-3--3--3-3-3-3--x-5---5--5-5-5-5--5-5-5-5--2--2--2-2-2-2--2-2-2--2--2--7-7-7-7-
   |-3-3--3--3-3-3-3--x-----3--3-3-3-3--3-3-3-3--2--2--2-2-2-2--2-2-2--2--2--5-5-5-5-
   |-3-3--3--3-3-3-3--------------------------------2--2--2-2-2-2--2-2-2--2--2-------
   open
   |---------------------------------------------------------------------------------
   |---0h1-------------1-----------1h3-------0h1h0----0h1--------------3----==-1-----
   |---------0--------------0----------------------------------0----------0---------0
   |-------------0-------------------------------------------------0-----------------
   |---3------------3------------3--------3-----------2---------------2-------2------
   |---------------------------------------------------------------------------------
   
   
   |---------------------------------------------------------------------------------
   |--0h1------------1-----------0h1h0-----------0---------0h1-----------1---------0h
   |--------0------------0----------------0----------0----------0-----------0--------
   |----------0------------------------------0---------------------0-----------------
   |--0--------0-------------0-----------------0---------0-0----------0---------0----
   |---------------------------------------------------------------------------------

   |------------------------------
   |-------------0----------------
   |--0--------------0------------
   |-----0------------------------
   |--------0-------------0-------
   |------------------------------
   2nd verse
                    
   |-0-----------------0------------------0--------------3------3------0-------------
   |-1-----------------3------------------1--------------1------1------1-------------
   |-0-----------------0------------------0--------------0-------------0-------------
   |-0-----------------0------------------0--------------2---------------------------
   |-3-----------------2------------------0------------------------------------------
   |---------------------------------------------------------------------------------
  
   |-0----------0-0-0--0----------0--0-0---0-----------0--------3--------------------
   |-1----------1-1-1--3----------3--3-3---1-----------1--------1--------------------
   |-0----------0-0-1--0----------0--0-0---0-----------0--------0--------------------
   |-0----------0-0-0--0----------0--0-0---2-----------2--------2--------------------
   |-3----------3-3-3--2----------2--2-2---0-----------0--------0--------------12\\---
   |---------------------------------------------------------------------------12-12-
   2nd chorus (distortion)
   |--------------------------------------------------------------------------------
   |-6--6-6--6-6-6-6-6--6------------------------------------------------------------
   |-5--5-5--5-5-5-5-5--5--0-0-0--5---5--5-5-5-5------4----4--4--4-4-4--4-4----------
   |-3--3-3--3-3-3-3-3--3--0-0-0--5---5--3-5-5-5-3----2----2--2--2-2-2--2-2--2\\------
   |-3--3-3--3-3-3-3-3--3---------3---3--3-3-3-3-3----2----2--2--2-2-2--2-2--2\\------
   |-3--3-3--3-3-3-3-3--3------------------------3----2----2--2--2-2-2--2-2----------

     
   |---------------------------------------------------------------------------------
   |---------------------------------------------------------------------------------
   |-7------7----7-7-7---7-5-5---------------------------------0--5--5--5-5-5-5--5---
   |-7------7----7-7-7---7-5-5----3--------3---3-3-3-3---3-3-3-0--5--5--5-5-5-5--5--3
   |-5------5----5-5-5---5-3-3-0--3--------3---3-3-3-3---3-3-3----3--3--3-3-3-3--3--3
   |- -------------------------0--3--------3---3-3-3-3---3-3-3----------------------3







    
   |--------------------------------------------------------------------------
   |-------5--5-5-5--5--------------------------------------------------------
   |-------4--4-4-4--4-----------7----------------------(7)-------------------
   |-2-----2--2-2-2--2---2-2\\----5----------------------(7)-------------------
   |-2-----2--2-2-2--2---2-2\\----5----------------------(5)-------------------
   |-2-----2--2-2-2--2--------------------------------------------------------

  Play fig.1  twice
 ---
   solo: distortion and wah                                                                 
   |---------------------------------------------------------------------------------
   |--------5--6~~-5--6--(5)~~~~~-----5--6-(6)--5------6~~~~-------5--6^(6)--6----5--
   |--5--7-----------------------5--7------------------------5--6--------------------
   |---------------------------------------------------------------------------------
   |---------------------------------------------------------------------------------
   |---------------------------------------------------------------------------------
                                 full bend
   |---------------------------------------------------------------------------------
   |--6--5~~~-6--5~~~ 6--5~(5)--6--8^-(8)----(8)-----5--6---5--6-(5)~~~------5--6-(6)
   |---------------------------------------------5--7-------------------5--7---------
   |---------------------------------------------------------------------------------
   |---------------------------------------------------------------------------------
   |---------------------------------------------------------------------------------
                                                                                                                full bend                                       full bend
   |---------------------------------------------------------------------------------
   |--6--(5)~~~~~~~~------5--6^-(6)--6-----5-----6--5~~~-6--5~~~-6--5~(5)--6--8^-(8)-
   |-----------------5--7------------------------------------------------------------
   |---------------------------------------------------------------------------------
   |---------------------------------------------------------------------------------
   |---------------------------------------------------------------------------------
       do the solo twice            |------
   2nd chorus(1x)                   |-1----
   Fig.1 (2x)           end on      |-0----
                                    |-3----
                                    |-3----
        
this is a good song.
enjoy!!!!!!
please rate!!!!!!
Show more