Song: Beautiful
Band: Creed
Album: Human Clay

~ = Vibrato
h = hammer on
p = pull off
. = palm mute
b = bending
r = rebend
/ = slide down
 = slide up
x = rake
wah = whammybar

Intro
|--------------------------------------|--------------------------------|
|--------------------------------------|--------------------------------|
|--------------------------------------|--------------------------------|
|------3-------3h5-------2-------3-----|-----3-------3h5------2------3--|
|-----------------------------------5--|--------------------------------|
|-0-0-----0-0-------0-0-----0-0--------|--0-----0-0------0-0-----0------|


|-----------------|------------------------------------------------------|
|-----------------|------------------------------------------------------|
|-----------------|--3---3-3----3---3-3----3-----------------------------|
|-0-0---3brbrp0~--|--1---1-1-0—-1---1-1-0-—1---3-----3h5-----2-----3-----|
|-0-0-------------|--1---1-1-0--1---1-1-0--1-----0-0-----0-0---0-0----5~-|
|-0-0-------------|--1---1-1-0—-1---1-1-0—-1-----0-0-----0-0---0-0-------|
PM. .                                            . .     . .   . .

Verse
|--------------------------------------|--------------------------------|
|--------------------------------------|--------------------------------|
|--------------------------------------|--------------------------------|
|------3-------3h5-------2-------3-----|-----3-------3h5------2------3--|
|-----------------------------------5--|--------------------------------|
|-0-0-----0-0-------0-0-----0-0--------|--0-----0-0------0-0-----0------|


Chorus
|-----------------|------------------------------------------------------|
|-----------------|------------------------------------------------------|
|-----------------|--3---3-3----3---3-3----3-----------------------------|
|-0-0---3brbrp0~--|--1---1-1-0—-1---1-1-0—-1---3-----3h5-----2-----3-----|
|-0-0-------------|--1---1-1-0—-1---1-1-0—-1-----0-0-----0-0---0-0----5~-|
|-0-0-------------|--1---1-1-0—-1---1-1-0—-1-----0-0-----0-0---0-0-------|
PM. .                                            . .     . .   . .

 Play this 4 times  Play this 4 times
|-----------------|-------------|
|-----------------|-------------|
|-----------------|---------7b--|
|-0-0—-0-0--------|--0-0—-0-----|
|-0-0—-0-0--------|--0-0—-0—5b--|
|-0-0-—0-0--------|--0-0—-0-----|
PM. .  .             . .  .


Bridge    Play this 2 times             Play this 2 times            14x
|---------------------------------|---------------------------------|------
|---------------------------------|---------------------------------|------
|--------19b---------19b------19b-|---------------------------------|--19b-
|---------x-----------x--------x--|---------------------------------|---x--
|--------17b---------17b------17b-|---------15b---------15b---------|--17b-
|-0-0—-0-----0-0—-0-------0-0-----|-0-0—-0-------0-0—-0-----0-0-0-0-|------
PM. .  .     . .  .       . .       . .  .       . .  .     . . . .


Solo  Wah over the whole solo
|------------------------------------14--|
|------3-----------8-7—-8/10---7—-8-----|
|-2/4-----4---7/9------------------------|
|----------------------------------------|
|----------------------------------------|
|----------------------------------------|
Wah over the whole solo

Bridge 2
|-----------------------------------------------------------------------|
|-----------------------------------------------------------------------|
|-----------------------------------------------------------------------|
|-7—-7-7—-7h9---9-9-9p7—-4—-4-4-4h5—-5-5-5p4-4~--4-4-4h5~--5-5-5p4~--0--|
|-5—-5-5—-5-----5-5-5----2—-2-2-2----2-2-2---0---0-0-0-----0-0-0--------|
|-5—-5-5—-5-----5-5-5----2—-2-2-2----2-2-2---0---0-0-0-----0-0-0--------|


Chorus and first Bridge

|------|
|------|
|--0~--|
|--0~--|
|--0~--|
|--0~--|


That´s it. An easy song to start learning. Trust me. This Tab is correct. A few things might be difficult to hear, but when you listen carefully then you´ll agree with me. Have fun with this song. Very good to play and makes much fun. If you have some questions then mail me. And please, rate this Tab.
Show more