Intro x2                                                            *Not Last 
-------------------------------------|-----------------------------|----------
-------------------------------------|-----------------------------|----------
-------------------------------------|-----------------------------|----------
------3-------3h5-------2-------3----|------3------3h5------2------|---3------
----------------------------------5--|-----------------------------|----------
-0-0-----0-0-------0-0-----0-0-------|--0-----0-0------0-0----0-0--|----------

Pre-Verse Part 1
------------------------------------------------------------------------------
------------------------------------------------------------------------------
------------------------------------------------------------------------------
--0-0---3brp0-----------------------------------------------------------------
--0-0-------------------------------------------------------------------------
--0-0-------------------------------------------------------------------------
 pm..|        

Part 2 x1                                                          ~~~
------------------------------------------------------------------------------
------------------------------------------------------------------------------
--3----3--3----3----3--3----3--3----------------------------------------------
--1----1--1p0--1----1--1p0--1--1p0-------3------3h5------2-------3-------0----
--1----1--1p0--1----1--1p0--1--1p0---------0-0------0-0-----0-0-----5----0----
--1----1--1p0--1----1--1p0--1--1p0---------0-0------0-0-----0-0----------0----
                                           pm.|         

Part 3 x1
------------------------------------------------------------------------------
------------------------------------------------------------------------------
--3----3--3----3--(3)---------------------------------------------------------
--1----1--1-0--1--(1)---------------------------------------------------------
--1----1--1-0--1--(1)---------------------------------------------------------
--1----1--1-0--1--(1)---------------------------------------------------------
            pm

Verse x2                                                            *Not Last 
-------------------------------------|-----------------------------|----------
-------------------------------------|-----------------------------|----------
-------------------------------------|-----------------------------|----------
------3-------3h5-------2-------3----|------3------3h5------2------|---3------
----------------------------------5--|-----------------------------|----------
-0-0-----0-0-------0-0-----0-0-------|--0-----0-0------0-0----0-0--|----------


Pre-Chorus x1
------------------------------------------------------------------------------
------------------------------------------------------------------------------
------------------------------------------------------------------------------
--0-0---3brp0-----------------------------------------------------------------
--0-0-------------------------------------------------------------------------
--0-0-------------------------------------------------------------------------
 pm..|        




Chorus x3                                                          ~~~
------------------------------------------------------------------------------
------------------------------------------------------------------------------
--3----3--3----3----3--3----3--3----------------------------------------------
--1----1--1p0--1----1--1p0--1--1p0-------3------3h5------2-------3-------0----
--1----1--1p0--1----1--1p0--1--1p0---------0-0------0-0-----0-0-----5----0----
--1----1--1p0--1----1--1p0--1--1p0---------0-0------0-0-----0-0----------0----
                                           
         

Post-Chorus Part 1 x1                   
------------------------------------------------------------------------------
------------------------------------------------------------------------------
--3----3--3----3----3--(3)----------------------------------------------------
--1----1--1p0--1----1--(1)----------------------------------------------------
--1----1--1p0--1----1--(1)----------------------------------------------------
--1----1--1p0--1----1--(1)----------------------------------------------------
           
Post-Chorus Part 2  x4               x3                   x1
----------------------|----------------|--------------------|-----------------
----------------------|----------------|--------------------|-----------------
----------------------|----------7b----|----------7-(7)-----|-----------------
----0-0--0--0--(0)----|--0-0--0--x-----|--0-0--0--x---------|-----------------
----0-0--0--0--(0)----|--0-0--0--5b----|--0-0--0--5-(5)-----|-----------------
----0-0--0--0--(0)----|--0-0--0--------|--0-0--0------------|-----------------
   pm.....|             pm.....|         pm.....|

Interlude x6                                                        *Not Last
-------------------------------------|-----------------------------|----------
-------------------------------------|-----------------------------|----------
-------------------------------------|-----------------------------|----------
------3-------3h5-------2-------3----|------3------3h5------2------|---3------
----------------------------------5--|-----------------------------|----------
-0-0-----0-0-------0-0-----0-0-------|--0-----0-0------0-0----0-0--|----------

Interlude second guitar (comes in on second time only) 
-----------------------|------------------------------------------------------
-----------------------|------------------------------------------------------
-----------------------|------------------------------------------------------
------whole rest-------|----5-8--7--(7)--------------------------------------
-----------------------|------------------------------------------------------
-----------------------|------------------------------------------------------


Pre-Chorus x1
------------------------------------------------------------------------------
------------------------------------------------------------------------------
------------------------------------------------------------------------------
--0-0---3brp0-----------------------------------------------------------------
--0-0-------------------------------------------------------------------------
--0-0-------------------------------------------------------------------------
 pm..|         

Chorus                                                             ~~~
------------------------------------------------------------------------------
------------------------------------------------------------------------------
--3----3--3----3----3--3----3--3----------------------------------------------
--1----1--1p0--1----1--1p0--1--1p0-------3------3h5------2-------3-------0----
--1----1--1p0--1----1--1p0--1--1p0---------0-0------0-0-----0-0-----5----0----
--1----1--1p0--1----1--1p0--1--1p0---------0-0------0-0-----0-0----------0----
                                           pm.|     pm.|    pm.|

                                                                   ~~~
------------------------------------------------------------------------------
------------------------------------------------------------------------------
--3----3--3----3----3--3----3--3----------------------------------------------
--1----1--1p0--1----1--1p0--1--1p0-------3------3h5------2-------3------0-----
--1----1--1p0--1----1--1p0--1--1p0---------0-0------0-0-----0-0-----5---0-----
--1----1--1p0--1----1--1p0--1--1p0---------0-0------0-0-----0-0---------0-----
                                           pm.|     pm.|    pm.|

                                                                   ~~~
------------------------------------------------------------------------------
------------------------------------------------------------------------------
--3----3--3----3----3--3----3--3----------------------------------------------
--1----1--1p0--1----1--1p0--1--1p0-------3------3h5------2-------3------0-----
--1----1--1p0--1----1--1p0--1--1p0---------0-0------0-0-----0-0-----5---0-----
--1----1--1p0--1----1--1p0--1--1p0---------0-0------0-0-----0-0---------0-----

Post-Chorus Part 1 x1                   
------------------------------------------------------------------------------
------------------------------------------------------------------------------
--3----3--3----3----3--(3)----------------------------------------------------
--1----1--1p0--1----1--(1)----------------------------------------------------
--1----1--1p0--1----1--(1)----------------------------------------------------
--1----1--1p0--1----1--(1)----------------------------------------------------

Post-Chorus Part 2  x4               x3                   
----------------------|----------------|--------------------------------------
----------------------|----------------|--------------------------------------
----------------------|----------7b----|-----------7--------------------------
----0-0--0--0--(0)----|--0-0--0--x-----|-0-0---0---x--------------------------
----0-0--0--0--(0)----|--0-0--0--5b----|-0-0---0---5--------------------------
----0-0--0--0--(0)----|--0-0--0--------|-0-0---0------------------------------
   pm.....|             pm.....|        pm......| 

Post-Chorus Part 3              x2        ~~~         ~~~                       
----------------------------------|---------------------------------|---------
----------------------------------|---------------------------------|---------
--------19b--------19b-------19b--|--------19----------19-----------|---------
---------x----------x---------x---|---------x-----------x-----------|---------
--------17b--------17b-------17b--|--------17----------17-----------|---------
-0-0--0-----0-0--0------0-0-------|-0-0--0------0-0--0-----0-0-0-0--|---------

------------------------------------------------------------------------------
------------------------------------------------------------------------------
--19-19-19-19-19-19-19-19-19-19---19-19-19-19--------------------------------
---x--x--x--x--x--x--x--x--x--x----x--x--x--x--0------------------------------
--17-17-17-17-17-17-17-17-17-17---17-17-17-17-0------------------------------
-----------------------------------------------0------------------------------


Solo Guitar 1                              
------------------------------------------------------------------------------
------------------------------------------------------------------------------
------------------------------------------------------------------------------
-7--7-7--7h9---9-9-9p7-------4--4-4-4-5---5-5-5-4-------4-----4h5-----5p4-----
-5--5-5--5-----5-5-5---0-0---2--2-2-2-2---2-2-2-2--0-0----0-0-----0-0-----0-0-
-5--5-5--5-----5-5-5---0-0---2--2-2-2-2---2-2-2-2--0-0----0-0-----0-0-----0-0-


------------------------------------------------------------------------------
------------------------------------------------------------------------------
------------------------------------------------------------------------------
------4-----4h5---5-5-5-5-4---------------------------------------------------
--0-0---0-0-------0-0-0-0-0-0-------------------------------------------------
--0-0---0-0-------0-0-0-0-0-0-------------------------------------------------


Guitar 2 (w/ E-bow)          ~~~                          
------------------------------------------------------------------------------
------------------------------------------------------------------------19----
------------------------------------------------------------------------------
---------------x--/7---9/12---9------/12-14/17--16---/19------16--17----------
------------------------------------------------------------------------------
------------------------------------------------------------------------------

                     
Chorus x3                                                          ~~~
------------------------------------------------------------------------------
------------------------------------------------------------------------------
--3----3--3----3----3--3----3--3----------------------------------------------
--1----1--1p0--1----1--1p0--1--1p0-------3------3h5------2-------3-------0----
--1----1--1p0--1----1--1p0--1--1p0---------0-0------0-0-----0-0-----5----0----
--1----1--1p0--1----1--1p0--1--1p0---------0-0------0-0-----0-0----------0----
                                           
         
Post-Chorus Part 1 x1                   
------------------------------------------------------------------------------
------------------------------------------------------------------------------
--3----3--3----3----3--(3)----------------------------------------------------
--1----1--1p0--1----1--(1)----------------------------------------------------
--1----1--1p0--1----1--(1)----------------------------------------------------
--1----1--1p0--1----1--(1)----------------------------------------------------

Post-Chorus Part 2  x4               x3                   
----------------------|----------------|--------------------------------------
----------------------|----------------|--------------------------------------
----------------------|----------7b----|-----------7--------------------------
----0-0--0--0--(0)----|--0-0--0--x-----|-0-0---0---x--------------------------
----0-0--0--0--(0)----|--0-0--0--5b----|-0-0---0---5--------------------------
----0-0--0--0--(0)----|--0-0--0--------|-0-0---0------------------------------
   pm.....|             pm.....|        pm......| 



Post-Chorus Part 3              x2        ~~~        ~~~                         
----------------------------------|---------------------------------|---------
----------------------------------|---------------------------------|---------
--------19b--------19b-------19b--|--------19----------19-----------|---------
----------------------------------|---------x-----------x-----------|---------
--------17b--------17b-------17b--|--------17----------17-----------|---------
-0-0--0-----0-0--0------0-0-------|-0-0--0------0-0--0-----0-0-0-0--|---------

                             triplets   triplets
                             |------|   |------|
------------------------------------------------------------------------------
------------------------------------------------------------------------------
--19-19-19-19-19-19-19-19----19-19-19---19-19-19------------------------------
---x--x--x--x--x--x--x--x-----x--x--x----x--x--x-----0--(0)-------------------
--17-17-17-17-17-17-17-17----17-17-17---17-17-17-----0--(0)-------------------
-----------------------------------------------------0--(0)-------------------
      

*What I mean by “Not Last” is that you don’t play that note the last time you
play the whole part.





Key:

pm=palm muted

brp=bend then return bend and pull off

(#)=let ring

~~=vibrato
Show more