This is 100% right. 

(Standard Tunning)

Intro and Verses

|----------------------------------------------------------|
|----------------------------------------------------------|
|----------------------------------------------------------|
|---3--3h5--2--3---3--3h5--2-3--3--3h5--2--3---3--3h5--2-3b|
|---------------5---------------------------5--------------|
|-00-00---00-00--00-00---00---00-00---00-00--00-00---00----|

Chorus

|----------------------------|
|----------------------------|
|----------------------------|
|-3-33-3-33----3--3h5--2--3--|
|-1-11-1-11--00-00---00-00-5-|
|-1-11-1-11--00-00---00-00---|

|------------------------------------|
|---------------00-0-9-00-0-9-00-0-9-|
|---------------00-0-x-00-0-x-00-0-x-|
|-00-0-0-00-0-0-00-0-7-00-0-7-00-0-7-|
|-00-0-0-00-0-0----------------------|
|-00-0-0-00-0-0----------------------|


|---------------00-0-9-00-0-9-00-0-9-00-0-14-00-0-14-00-0-14-14-14-14-9-9-9-9|
|---------------00-0-x-00-0-x-00-0-x-00-0-x--00-0-x--00-0-x--x--x--x--x-x-x-x|
|-00-0-0-00-0-0-00-0-7-00-0-7-00-0-7-00-0-12-00-0-12-00-0-12-12-12-12-7-7-7-7|
|-00-0-0-00-0-0--------------------------------------------------------------|
|-00-0-0-00-0-0--------------------------------------------------------------|

Bridge

|-------------------------------------|
|-------------------------------------|
|------3-33---------------------------|
|-3-33-1-11-3-----4--4h5--5---5-4-1-0-|
|-1-11-1-11-1-3---------------0-0-0-0-|
|-1-11------1-1-00-00---00-00-0-0-0-0-|

That's about it enjoy!

Any questions E-mail me! IM_THE_ISH@Hotmail.com
Show more