Creed
Bound and Tied

Transcribed By: Ryan Huntsman  (IbanezBassMX)
Email: Ryan82184@aol.com

Drop D Tunning

Intro  (0:08)
G---------------------------------------------------------------
D-------0-0-0--------------------------0-0-0-------------3br-0--   X3
A---------------------------------------------------------------
D-6-6-6-------6-6-6-5-5-5-3br-0--6-6-6-------6-6-6-5-5-5--------

(0:28)
G------------------------------------------------------
D-------0-0-0--------------------------0-0-0-----------  X1
A------------------------------------------------------
D-6-6-6-------6-6-6-5-5-5-3br-0--6-6-6-------6-6-6-3b--

(0:33)
G-------------7br-----------------------7br--------------------
D--------------------------------------------------------------   X2
A--------------------------------------------------------------
D-3-3-0-5br-0----0-5br-0-3-0-3-0--5br-0-----0-5br-0-3-0-3-3-0--

Verse  (0:47)
G---------------------------------------------------------------
D-------0-0-0--------------------------0-0-0-------------3br-0--   X4
A---------------------------------------------------------------
D-6-6-6-------6-6-6-5-5-5-3br-0--6-6-6-------6-6-6-5-5-5--------

(1:14)
G---------------------------------------------------------------
D-------0-0-0--------------------------0-0-0--------------------   X3
A---------------------------------------------------------------
D-6-6-6-------6-6-6-5-5-5-3br-0--6-6-6-------6-6-6-5-5-5-3br-0--

(1:34)
G------------------------------------------------------
D-------0-0-0--------------------------0-0-0-----------  X1
A------------------------------------------------------
D-6-6-6-------6-6-6-5-5-5-3br-0--6-6-6-------6-6-6-3b--


Chorus  (1:40)
G-------------7br-----------------------7br--------------
D--------------------------------------------------------   X4
A--------------------------------------------------------
D-3-3-0-5br-0----0-5br-0-3-0-3-0--5br-0-----0-5br-0-3-0--

(2:07)
G----------
D----------   
A----------
D-3-3-0~~--
  
Fill  (2:13)
G-12----17------------
D----12------12~------
A---------------------
D----------------0-3--

2nd Verse  (2:20)
G----------------------------------------------------------------------
D--------------0-0-0--------------------------0-0-0--------------------
A----------------------------------------------------------------------
D-3-3-0--6-6-6-------6-6-6-5-5-5-3br-0--6-6-6-------6-6-6-5-5-5-3-3-0--

(2:27)
G----------------------------------------------------------------
D-------0-0-0---------------------------0-0-0-------------3br----
A----------------------------------------------------------------
D-6-6-6-------6-6-6-5-5-5-3br-0--6-6-6--------6-6-6-5-5-5-----0--
 
(2:34)
G---------------------------------------------------------------
D-------0-0-0--------------------------0-0-0--------------------   X2
A---------------------------------------------------------------
D-6-6-6-------6-6-6-5-5-5-3br-0--6-6-6-------6-6-6-5-5-5-3-3-0--

(2:46)
G---------------------------------------------------------------
D-------0-0-0--------------------------0-0-0--------------------
A---------------------------------------------------------------
D-6-6-6-------6-6-6-5-5-5-3br-0--6-6-6-------6-6-6-5-5-5-3br-0--
 
(2:53)
G------------------------------------------------------
D-------0-0-0--------------------------0-0-0-----------
A------------------------------------------------------
D-6-6-6-------6-6-6-5-5-5-3br-0--6-6-6-------6-6-6-3b--

Chorus  (3:00)
G-------------7br-----------------------7br--------------
D--------------------------------------------------------   X4
A--------------------------------------------------------
D-3-3-0-5br-0----0-5br-0-3-0-3-0--5br-0-----0-5br-0-3-0--

(3:27)
G---------
D---------
A---------
D-3-3-0~--

Interlude  (3:39)
Not sure if the bass plays this so I put it in anyway, just in case.
G-7--7-7-7-7--7-7-7-7--7-7-7--12-12-12-10-10-10--
D------------------------------------------------   X5
A------------------------------------------------
D------------------------------------------------

(4:04)
G-14--14-14-14-16--16-16-16-17--17-17-17-19--19-19-19--
D------------------------------------------------------  X1
A------------------------------------------------------
D------------------------------------------------------

(4:09)
G-7--7-7-7-7--7-7-7-7--7-7-7--12-12-12-10-10-10--
D------------------------------------------------   X5
A------------------------------------------------
D------------------------------------------------

(4:28)
G-----------------------------------------
D-----------------------------------------   X1
A-----------------------------------------
D-5--5-5-5-5--5-5-5-5--5-5-5-5--5-5-5/17--

Chorus  (4:37)
G-------------7br-----------------------7br--------------
D--------------------------------------------------------   X4
A--------------------------------------------------------
D-3-3-0-5br-0----0-5br-0-3-0-3-0--5br-0-----0-5br-0-3-0--

comes in after chorus is played the fourth time.  (5:03)
G---------------------------------------------------------------------
D-------------0-0-0--------------------------0-0-0--------------------
A---------------------------------------------------------------------
D-3-3-0-6-6-6-------6-6-6-5-5-5-3br-0--6-6-6-------6-6-6-5-5-5-3br-0--
  
(5:07)
G---------------------------------------------------------
D-------0-0-0--------------------------0-0-0--------------
A---------------------------------------------------------
D-6-6-6-------6-6-6-5-5-5-3br-0--6-6-6-------6-6-6-5-5-5--

(5:16)
G----------
D----------  Fade Out
A----------
D-3-3-0~~--
  
Thats All of it, I wrote the whole song out so you wouldnt 
get confused. Their are a lot of different variations to this song, 
it took me a long time to finally get it right.
Please rate this tab, Thanks.
Show more