BAND: Creed
SONG: Bullets
ALBUM: Weathered
TABBED BY: Me
EMAIL: CreedGtrst41@cs.com

I taped their performance on SNL and from watching it this is the closest i can come to what 
I think he plays ANY questions or comments PLEASE email me.

hey just wanna let you all know this is right now i made massive changes so it is now
corrected the only thing thats wrong is the struming pattern and the # of times to play each note u can figure that out on your own
Intro
e-----------------------------------------------------------------|-
B-----------------------------------------------------------------|-
G-----------------------------------------------------------------|-
D-----------------------------------------------------------------|-
A--------------------------12-12-12-12-13-13-12-10-10-12-13-12-12-|-
D-000000000000000000000000000000000000000000000000000000000000000-|-

e----------------------------------------------------------------------|-
B----------------------------------------------------------------------|-
G----------------------------------------------------------------------|-
D-14-14-14-14-14-14-14-15-15-15-15-15-14-12-12-12-12-12-14-15-14-14-14-|-
A-12-12-12-12-13-13-13-13-13-13-13-13-12-10-10-10-10-10-12-13-12-12-12-|-
D-00000000000000000000000000000000000000000000000000000000000000000000-|-

e----------------------------------------------------------------------------------|-
B----------------------------------------------------------------------------------|-
G-------------------------------------------12-12-12-12-12-12-12-14-14-14-15-15-15-|-
D-14-14-14-14-14-14-14-15-15-15-15-15-15-15----------------------------------------|-
A-12-12-12-12-13-13-13-13-13-13-13-13-13-13-10-10-10-10-10-10-10-12-12-12-13-13-13-|-
D----------------------------------------------------------------------------------|-

Intro/Verse (just palm mute the verse)
e-----------------------------------------------------------------|-
B-----------------------------------------------------------------|-
G-----------------------------------------------------------------|-
D-----------------------------------------------------------------|-
A-----------------15--------------13------------------------------|-
D-13 12 0 12 0 12 -- 12 0 12 0 12----12 0 12 0 12 13 12 0 10 12 0-|-

Chorus
e-------------------------------------------------------------------------
B-------------------------------------------------------------------------
G-------------------------------------------------------------------------
D---------------------------------------------------------------------3^--
A-0 1 0 1 0 1 0-----0 1 0 1 0 1 0 0 0-0 1 0 1 0 1 0     0 1 0 1 0 1 0---1^
D-0 1 0 1 0 1 0-----0 1 0 1 0 1 0 0 0-0 1 0 1 0 1 0-----0 1 0 1 0 1 0-----
pm...........       .............................       ............

then just play the verse again and another chorus, the solo is...
(play twice)
e-------------------------------------------------------------------------------------------------------------
B-------------------------------------------------------------------------------------------------------------
G---------------------------------------------------------------------------------------------------------9  
D-------------------------------------------------------------------------------------------------------------
A-------------------------------------------------------------------------------------------------------------
D-13 12 0 10 12 0  12 0 10 12 0  13 12 0 10 12 0 0 0 0 13 12 0 10 12 0 13 12 0 10 12 0 13 12 0 10 12 0 0-----
pm                                                .....                                           
                                                                                   interlude (/ &  are going up and down with the tremelo, i didn't know how else to write that)
------------------------------------------------------------------------------
------------------------------------------------------------------------------
--------------------------------------------------------5---------------------
---------------------------------0----------7^--------------------------------
-5----------------7--------------0--------------------------------------------
-5-------------------------------0--------------------------------------------
             /      /                        /              /                          
            /     /                        /              /  
     ____ /      /                       /              /   


then there is a bridge which is this...

------------------------------------------------------------------------------
------------------------------------------------------------------------------
-9-9-9-9-9-9-9-10-10-10-10-10-10-9-7-7-7-7-7-7-9-10-9-9-9-9-9-----------------
------------------------------------------------------------------------------
------------------------------------------------------------------------------
------------------------------------------------------------------------------
then there is a second guitar a little distorted toward the end of that but otherwise then comes the second part of the intro but with distortion and the 0's are pm'ed. this is followed by another chorus followed by another solo so there yah go questions or comments 
email me if not have fun on a great song by a great band!
Show more