Freedom Fighter
                   By Creed.  Tabbed by Dave Prescott
This is a *** good song.  For the "wicked riff"  I'm not sure if it's a 
hammer on and pull off or a bend and return.  Either way, execute it quickly
or it will sound silly.  Comments to Prescodc@mcmaster.ca


       Intro and Verse (slight P.M.(3x) on verse)                           
E----------------------------------||------------------------||---------
B----------------------------------||------------------------||---------
G---------------------------------*||-----------------------*||---------
D---0--------------0-----------3--*||--5^p---3-----3--------*||---------
A---0-----------3--0--0--3--5------||-----------5-----5--3---||---------
D---0--0--3--5-----0---------------||------------------------||---------
                                                                        

                                     Last time                          
E--------------------------------------------------------------||-------
B--------------------------------------------------------------||-------
G--------------------------------------------------------------||-------
D------------------------------------5^--5^--5^p3-----3--------||-------
A--------------------------------------------------5-----5--3--||-------
D--------------------------------------------------------------||-------
                                                                        

                                                                     
                                                                        

       Chorus (with and without vocals)                                 
E-----------------------------------------------------------------------
B-----------------------------------------------------------------------
G-----------------------------------------------------------------------
D---------0--10--9---5--4--3--7--2-----0--5--3--0--3--3-----------------
A---------0--10--10--5--4--3--7--2-----0--5--3--0--3--3-----------------
D---------0--10--9---5--4--3--7--2-----0--5--3--0--3--3-----------------
                                                                        

                            Interlude (first few times no p.m.)         
E-----------------------------------------------------------------------
B-----------------------------------------------------------------------
G-----------------------------------------------------------------------
D------------------------------0-----0-----------0-----0-----------0----
A------------------------------0-----0-----------0-----0-----------0----
D------------------------------0-----0--0--0-----0-----0--0--0-----0----
                                                                        

                                                                        
E-----------------------------------------------------------------------
B-----------------------------------------------------------------------
G-----------------------------------------------------------------------
D------0-----------10--7--0--5--8--5------------------------------------
A------0-----------10--7--0--5--8--5------------------------------------
D------0--0--0-----10--7--0--5--8--5------------------------------------
                                                                        

    Little slidy part during quiet interlude                            
E-----------------------------------------------------------------------
B-----------------------------------------------------------------------
G-----------------------------------------------------------------------
D-------------------------10--7--0--5--8--5-----------------------------
A-------------------------10--7--0--5--8--5-----------------------------
D---1310~~~--------------10--7--0--5--8--5-----------------------------
                                                                        

                                     Wicked Riff.                       
E-----------------------------------------------------------------------
B-----------------------------------------------------------------------
G-----------------------------------------------------------------------
D------------------------------------0---------------------0------------
A------------------------------------0--5h6p5-----3--5-----0--5h6p5-----
D------------------------------------0---------------------0------------
                                                                        

                                                                        
E-----------------------------------------------------------------------
B-----------------------------------------------------------------------
G-----------------------------------------------------------------------
D---------------0------------------1--1--1--------0---------------------
A------3--5-----0--5h6p5-----3--5--1--1--1--------0--5h6p5-----3--5-----
D---------------0------------------1--1--1--------0---------------------
                                                                        

                                                                        
E-----------------------------------------------------------------------
B-----------------------------------------------------------------------
G-----------------------------------------------------------------------
D------0---------------------0------------------1--1--3-----------------
A------0--5h6p5-----3--5-----0--5h6p5-----3--5--1--1--3-----------------
D------0---------------------0------------------1--1--3-----------------
                                                                        



========================================================================
==                       TABLATURE EXPLANATION                        ==
========================================================================

----------                ----------                ----t---
----5h8--- Hammeron       ----(8)--- Ghost          ----6--- Tap
----------                ---------- Note           --------
----5p8--- Pulloff        ----------                --------

----------                ----------                -----p--
----5/8--- Slide Up       -----x---- Dead           -----7-- Pop
----------                ---------- Note           --s-----
----58--- Slide Down     ----------                --5----- Slap 

----------                ||------|| Repeat         --------
----5~~~-- Vibrato        ||*----*||                ---5^--- Bend
----------                ||*----*||                --------
----------                ||------||                --------

----------                ----------                --------
-4:------- Time           ----------                --------
-4:------- Signature      ----------                --------
----------                ----------                --------

========================================================================
==               Created with BUCKET O' TAB for Windows               ==
==                  For more info email gse@his.com                   ==
========================================================================
Show more