Intro/Verse:                   then:
e-----------------------------|-----------------------
B-----------------------------|-----------------------
G-----------------------------|-----------------------
D---------------------------3-|-----------63---3-----
A-x-x-x-x-0-0-----3-0-0-3-5---|-0-0-----3-----5---5-3-
D-x-x-x-x-0-0-3-5---0---------|-0-0-3-5---------------
          ________x3_______/
                       then:
e---------------------|--------------------
B---------------------|--------------------
G---------------------|--------------------
D-------------------3-|-5b--5b-63---3-----
A-0-0-----3-0-0-3-5---|------------5---5-3-
D-0-0-3-5---0---------|--------------------
  ________x3_______/

repeat the intro/verse 1 time, but palm mute it,
all except for the "then" parts

Chorus:
e-------------------------------------------------------------
B-------------------------------------------------------------
G--------5-5-5--4-4-4-----------------------------------------
D-0-0-0--5-5-5--4-4-4--5-5-4-3-3-3--7-7-7--2-2-2--5-3-0h3(5)0-
A-0-0-0--3-3-3--2-2-2--5-5-4-3-3-3--7-7-7--2-2-2--5-3-0h3(5)0-
D-0-0-0----------------5-5-4-3-3-3--7-7-7--2-2-2--5-3-0h3(5)0-
  im.....no.....ragin'.......soon...come...day....face......me

back to verse (once; all palm muted except for the "then"'s)

AFTER YOU REPEAT THE VERSE ONCE (palm muted) AND THE CHORUS,
it goes into this:

Post-Chorus:
e------------------------------------
B------------------------------------
G------------------------------------
D-0--0-0--0--0-0--0--0-0------------- repeat 3x
A-0--0-0--0--0-0--0--0-0-8-5-7-5-7-5-
D-0--0-0--0--0-0--0--0-0-8-5-7-5-7-5-
     pm.     pm.     pm. face.....me

Interlude:
e----------------------------------------
B----------------------------------------
G----------------------------------------
D-0--0-0-1-0--0-0-1-0--0-0-1------------- play this once,
A-0--0-0-1-0--0-0-1-0--0-0-1-8-5-7-5-7-5- then the fill below,
D-0--0-0-1-0--0-0-1-0--0-0-1-8-5-7-5-7-5- then repeat this 3x
  pm....................................

there is a small fill mark puts in right after
he plays the part above:
e-----------------------------------------
B-----------------------------------------
G-----------------------------------------
D-0--0-0-1-0--0-0-------------------------
A-0--0-0-1-0--0-0-6-5--(0)(0)-8-5-7-5-7-5-
D-0--0-0-1-0--0-0-6-5--(0)(0)-8-5-7-5-7-5-
  pm.....................................
Post-Interlude:
e-------------------------------------------------------
B-------------------------------------------------------
G-------------------------------------------------------
D-0--0-0-1-0--0-0-1-------------------------------------
A-0--0-0-1-0--0-0-1-8-5-7-5-7-5-8-5-7-5-7-5-8-5-7-5-8-5-
D-0--0-0-1-0--0-0-1-8-5-7-5-7-5-8-5-7-5-7-5-8-5-7-5-8-5-
 CANT YOU SEE WE'RE COMIN!!!
 
e-------------------------------------
B-------------------------------------
G-------------------------------------
D-0-0h1-----0-0h1-----0-0h1-----1-1-1-
A-0-----3p0-0-----3(5)0-----3p0-1-1-1-
D-0---------0---------0---------1-1-1-

e-------------------------------------
B-------------------------------------
G-------------------------------------
D-0-0h1-----0-0h1-----0-0h1-----1-1-3-
A-0-----3p0-0-----3(5)0-----3p0-1-1-3-
D-0---------0---------0---------1-1-3-

e-------------------------------------
B-------------------------------------
G-------------------------------------
D-0-0h1-----0-0h1-----0-0h1-----1-1-1-
A-0-----3p0-0-----3(5)0-----3p0-1-1-1-
D-0---------0---------0---------1-1-1-

e---------------------------------------
B---------------------------------------
G---------------------------------------
D-0-0h1-----0-0h1-----0-0h1-----1-(1)-3-
A-0-----3p0-0-----3(5)0-----3p0-1-(1)-3-
D-0---------0---------0---------1-(1)-3-

REPEAT CHORUS ONCE, THEN:
e------------------------------------------------
B------------------------------------------------
G--------5-5-5--4-4-4----------------------------
D-0-0-0--5-5-5--4-4-4--5-5-4-3-3-3--7-7-7--2-2-2-
A-0-0-0--3-3-3--2-2-2--5-5-4-3-3-3--7-7-7--2-2-2-
D-0-0-0----------------5-5-4-3-3-3--7-7-7--2-2-2-

e------------------------------------
B------------------------------------
G------------------------------------
D-5-3-0h3(5)-5-3-0h3(5)-5-3-0h3(5)-0-
A-5-3-0h3(5)-5-3-0h3(5)-5-3-0h3(5)-0-
D-5-3-0h3(5)-5-3-0h3(5)-5-3-0h3(5)-0-
  face..face.face..face.face..face.me


Intro/Verse variations:

1) u can either play:

(as i have):
D-------------------3-
A-0-0-----3-0-0-3-5---
D-0-0-3-5---0---------

or:
D-------------------3-
A-0-0-----3-0-0-3-5---
D-0-0-3-5---0-0-------

2) on the "then" parts,
 you can either play:

(as i have):
D-63---3-----
A-----5---5-3-
D-------------

or:
D-6p5p3---3-----
A-------5---5-3-
D---------------

play whatever u think sounds best
Show more