Band/Artist:  Creed
Song:  Hide
Album:  Weathered (#9 on CD)
Transcribed by Kyle Holloway
E-mail:  kyle31187@hotmail.com
Tuning:  D, A, D, A, D, D
Notes:  All of the bends are full bends

Intro (Distortion):

D----------------------------------------------|---14~----------------|
D----------------------------------------------|----------12~---------|
A----4b----4--4b----5-------4b----4--4b----5---|----------------------|
D----------------------------------------------|----------------------|
A--0-----0--------0-------0-----0--------0-----|----------------------|
D----------------------------------------------|----------------------|

D----------------------------------------------------------------------
D----------------------------------------------------------------------
A----4b----4--4b----5~-5--5--5------4b----4--4b----5~-5--5--5----------
D-------------------5~-5--5--5---------------------5~-5--5--5----------
A--0-----0--------0---------------0-----0--------0---------------------
D----------------------------------------------------------------------

Verse (clean):

D------------------------4---------------------------------------------
D--------------------------0-----0--0--0-0-0--1--1-0-------------------
A-------0----------0---------0---0--0--0-0-0--0--0-0-------------------
D-----6---6------2---2---------2-2--2--2-2-2--2--2-2-------------------
A---4----------2-------------------------------------------------------
D-4----------2---------------------------------------------------------

Chorus 1 (very light distortion):

D----------------------------------------------------------------------
D----------------------------------------------------------------------
A-1--1--1-1-1-1--1-1-1-1------1--1--1-1-1-1--1-1-1-1-------------------
D-3--3--3-3-3-3--3-3-3-3------3--3--3-3-3-3--3-3-3-3-------------------
A-1--1--1-1-1-1--1-1-1-1------3--3--3-3-3-3--3-3-3-3-------------------
D----------------------------------------------------------------------

D------------------------2---------------------------------------------
D--------------------------0-----0--0--0-0-0--1--1-0-------------------
A-------0----------0---------0---0--0--0-0-0--0--0-0-------------------
D-----6---6------2---2---------2-2--2--2-2-2--2--2-2-------------------
A---4----------2-------------------------------------------------------
D-4----------2---------------------------------------------------------

Chorus 2 (heavy distortion):

D----------------------------------------------------------------------
D-----------------------------0--0--0-0-0-0--0-0-0-0-------------------
A-1--1--1-1-1-1--1-1-1-1------3--3--3-3-3-3--3-3-3-3-------------------
D-3--3--3-3-3-3--3-3-3-3------3--3--3-3-3-3--3-3-3-3-------------------
A-1--1--1-1-1-1--1-1-1-1------0--0--0-0-0-0--0-0-0-0-------------------
D----------------------------------------------------------------------

  ?Where there?s no reason to hide.?
D----------------------------------------------------------------------
D----------------------------------------------------------------------
A--5-----5------5---3---3---3-1--1--1----------------------------------
D--5-----5------5---3---3---3-1--1--1----------------------------------
A--5-----5------5---3---3---3-1--1--1----------------------------------
D--5-----5------5---3---3---3-1--1--1----------------------------------

Then go into the intro and then the second part of the chorus.
Show more