Hide - by Creed
              Tabbed by Dave Prescott
Prescodc@mcmaster.ca
the tuning is F-bflat-F-bflat-D-F.  It's called "open b-flat"
To get your guitar like this, tune all the strings up one 
half step, and then tune the 4th through 2nd (d, g, and b) 
up another whole step.  Careful you don't break your strings.
DO NOT TUNE TO THIS ON AN ACOUSTIC GUITAR!!!!!!!!
I'm positive this tuning is correct, based on the harmonics
in the intro and the open ringing strings in the verse

           intro                   2x                                   
F----------------------------------||-----------------------------------
D----------------------------------||-----------------------------------
Bb--------------------------------*||-----------------------------------
F------9^--9-----9--9^--9-----10--*||-----------------------------------
Bb--0---------0------------0-------||-----------------------------------
F----------------------------------||-----------------------------------
                                                                        

    harmonics                                                           
F---12------------------------------------------------------------------
D-------12--------------------------------------------------------------
Bb----------------------------------------------------------------------
F-----------------------------------------------------------------------
Bb----------------------------------------------------------0-----------
F-----------------------------------------------------------------------
                                                                        

    intro 2                                                             
F------------------------------------0---0---0---0----------------------
D------------------------------------12--12--12--12---------------------
Bb-----------------------------------0---0---0---0----------------------
F---9^--9--------9--9^--9-----10-----10--10--10--10---------------------
Bb------------0------------0--------------------------------------------
F-----------------------------------------------------------------------
                                                                        

             verse                                  (listen to cd
                                                      for strumming pattern)
F------------------------------------------0--------0--0--0--0--0--0----
D---------------------------------------------0-----0--0--0--0--0--0----
Bb-----------------0--------------0--------------0--0--0--0--0--0--0----
F---------------4-----4--------4-----4--------------x--x--x--x--9--7----
Bb-----------4--------------2-----------2-----------7--7--7--7--7--7----
F---------2--------------0--------------------------5--5--5--5--5--5----
                                                                        

                   chord before chorus                                  
F------------------0--0--0--------------||------------------------------
D------------------0--0--0--------------||------------------------------
Bb-----------------0--0--0--------------||------------------------------
F------------------x--x--x--------------||------------------------------
Bb-----------------12-12-12-------------||------------------------------
F------------------10-10-10-------------||------------------------------
                                                                        

             chorus chords(once again listen for strumming pattern)                  
F---0-----0-0--0-0-0---0--------0-0---0---0-------------------------0-------0--0--0--
D---0-----3-0--0-0-0---0--------0-0----0----0-------------------------0-----0--0--0--
Bb--0-0h2 2-2/44-0-0h2p0--------0-0-----0------------0--------0---------0---0--0--0--
F---0-----0-0--0-0-0---0--------0-0----------------4---4----4---4-----------x--x--x-
Bb--0-----0-0--0-0-0---0--------7-7--------------4--------2-------2---------12-12-12-
F---0-----0-0--0-0-0---0--------4-4-------------2-------0-------------------10-9 -10--
                                                                        

    chord at end of chorus                                              
F-----------------------------------------------------------------------
D-----------------------------------------------------------------------
Bb--0-------------------------------------------------------------------
F----------------------------------------------------------------------
Bb--12------------------------------------------------------------------
F---9--------------------------------------------------------------------
                                                                        

That should get everyone off on the right foot.  It's probably not 
perfect, but it's also probably pretty close.  E-mail me with any 
suggestions, comments, or hate-mail at Prescodc@mcmaster.ca



========================================================================
==                       TABLATURE EXPLANATION                        ==
========================================================================

----------                ----------                ----t---
----5h8--- Hammeron       ----(8)--- Ghost          ----6--- Tap
----------                ---------- Note           --------
----5p8--- Pulloff        ----------                --------

----------                ----------                -----p--
----5/8--- Slide Up       -----x---- Dead           -----7-- Pop
----------                ---------- Note           --s-----
----58--- Slide Down     ----------                --5----- Slap 

----------                ||------|| Repeat         --------
----5~~~-- Vibrato        ||*----*||                ---5^--- Bend
----------                ||*----*||                --------
----------                ||------||                --------

----------                ----------                --------
-4:------- Time           ----------                --------
-4:------- Signature      ----------                --------
----------                ----------                --------

========================================================================
==               Created with BUCKET O' TAB for Windows               ==
==                  For more info email gse@his.com                   ==
========================================================================
Show more