#----------------------------------PLEASE NOTE--------------------------------#
#This file is the author's own work and represents their interpretation of the#
#song. You may only use this file for private study, scholarship, or research.#
#-----------------------------------------------------------------------------#
#-- File created with Instab - http://www.pconline.com/~smcarey/instab.html --#
#-----------------------------------------------------------------------------#

Author/Artist: Creed
Title: Hide
Tuning: Drop D 
Album: Weathered
Transcribed by: Adam Strachn
Email: CookieMonster912@hotmail.com

I did this quick but it sounds right for not being in the wrong tuning.
I will have the 'perfect' tab as soon as I feel like breking some strings 
to find out the tuning. I'm pretty sure it is just tuned 1 step up. Make
sure they are electric guitar strings though. Acoustic ones don't stretch 
as well. They will break. The high E string starts on F . . .

Intro – (light distortion)
Play this 2x -                     Then this -
-----------------------------------|---13---10---|
----3h4--3----1--3h4bp3----1---4~--|-------------|
-----------------------------------|-------------|
-----------------------------------|-------------|
-1------------1------------1-------|-------------|
-----------------------------------|-------------|
                                                
Then it plays riff that again . . .       

Clean riff -  
----------------------|--------------------------|--------------------------------|
----------------------|--------------6-----------|--3--3-3-3-3--3--3/4--4-4-4--3--|
----------------------|-----3-----------5--------|--3--3-3-3-3--3--3-3--3-3-3--3--|
----------8-----5-----|--------3-----------3-----|--3--3-3-3-3--3--3-3--3-3-3--3--|
----5--------5-----5--|-----------3-----------3--|--1--1-1-1-1--1--1-1--1-1-1--1--|
-5-----5--------------|--3-----------------------|--------------------------------|
                                                                              

Verse -  
----------------------|--------------------------|--------------------------------|
----------------------|--------------6-----------|--3--3-3-3-3--3--3/4--4-4-4--3--|
----------------------|-----3-----------5--------|--3--3-3-3-3--3--3-3--3-3-3--3--|
----------8-----5-----|--------3-----------3-----|--3--3-3-3-3--3--3-3--3-3-3--3--|
----5--------5-----5--|-----------3-----------3--|--1--1-1-1-1--1--1-1--1-1-1--1--|
-5-----5--------------|--3-----------------------|--------------------------------|
********************    ***********


Chorus -
“Let’s leave oh let’s get away  . . .“
----------------------------|
----------------------------|
-3--3-3-3-3-3-3-3-3-3--3-3--| Play with light distortion
-3--3-3-3-3-3-3-3-3-3--3-3--|
-1--1-1-1-1-1-1-1-1-1--1-1--|
----------------------------|
  
“Get lost in time . . .”
-1--1-1-1-1-1-1-1-1-1--1-1--|                   
-1--1-1-1-1-1-1-1-1-1--1-1--|
-3—-3-3-3-3-3-3-3-3-3--3-3--|
-3--3-3-3-3-3-3-3-3-3--3-3--|
-0--0-0-0-0-0-0-0-0-0--0-0--| 
----------------------------|

“Where there’s no reason to hide . . . . . . “
----------------------|--------------------------|--------------------------------|
----------------------|--------------6-----------|--3--3-3-3-3--3--3/4--4-4-4--3--|
----------------------|-----3-----------5--------|--3--3-3-3-3--3--3-3--3-3-3--3--|
----------8-----5-----|--------3-----------3-----|--3--3-3-3-3--3--3-3--3-3-3--3--|
----5--------5-----5--|-----------3-----------3--|--1--1-1-1-1--1--1-1--1-1-1--1--|
-5-----5--------------|--3-----------------------|--------------------------------|

Then it goes to the verse

Chorus 2 –
“Let’s leave . . . Get lost . . . Where there’s no reason to . . . “
------------------------------|---------------------------------|
-------------------------1----|---------------------------------|
-3-----------------------3----|--7-------------5-------------3--| Heavier
-3-----------------------3----|--5-------------3-------------1--| Distortion
-1-----------------------0----|--5-------------3-------------1--|
------------------------------|--5-------------3-------------1--|
                                                               
Then go into the intro.

Then go into the last ? of the chorus – “Yea~~~~~~ . . .” 
---------------------------------|
---------------------------------|
--7-------------5-------------3--|
--5-------------3-------------1--|
--5-------------3-------------1--|
--5-------------3-------------1--|

Feeds into the chorus then ends on the intro . . .               


Tab Key:
h = hammer on
p = pull off
* = palm mute
~ = let note ring
/ = slide up
Show more