SONG TTLE: HIDE
BAND: CREED
ALBUM: WEATHERED
WRITTEN BY: MARK TREMONTI
TABBED BY: AARON PAILLE
TUNING: FBFBDF
PRSkid79
                       OK! Here it is! I am telling you right now this is "THE BEST TAB FOR HIDE!" The tuning isnt really fbfbdf, all of the b's are b flats.  This an extremely hight tuning(be carefull when you tune your guitar).  Every string goes up  so tune the strings up really slowly.  You have to try this tab out! dont be lazy and look for a regular tuned tab for this song.  Ive seen Mark play this song and this is the real thing, and if you want to argue ask Mark himself!!!!!!

9b.5r-  bend one-half step up then release back to the ninth fret without striking the note again

intro(w/slight dist.)
F-------------------------------------------------------------------------
D-------------------------------------------------------------------------
B-------------------------------------------------------------------------
F-------9b.5r------9--9b.5r-------10---------9b.5r------------------
B--0------------0---------------0-----------0---------------------------
F-------------------------------------------------------------------------        

F-------------------------------12*--------------------------------------
D-----------------------------------12*----------------------------------
B-------------------------------------------------------------------------
F-----9--9b.5r------10-------------------------------------------------
B--0--------------0------------------------------------------------------
F-------------------------------------------------------------------------

F----------------------------12-12-12-12------------------------------
D----------------------------12-12-12-12------------------------------
B----------------------------12-12-12-12------------------------------
F--9--9b.5r---9--9b.5r---10-10-10-10--------9b.5r----------------
B--0-----------0------------0--0---0---0------0-------------------------
F-------------------------------------------------------------------------

F-------------------------------------------------------------------------
D------------------------------------------------------------------------
B-------------------------------------------------------------------------
F----9--9b.5r---10----9---7---7---7----7-----7-----5------5-------
B-0---------------0-----0---0---0---0----0-----0-----0------0------
F------------------------------------------------------------------------

(a chorus pedal is used throughout the part below and the chorus)
verse
F------------------------------------0----------0------------------------
D---------------------------------------0-------0------------------------
B------------0-------------0--------------0----0------------------------
F---------4-----0-------4----4-----------------7-x-2-------------------
B------4--------------2-------------------------7------------------------
F---2---------------0------------0--------------5------------------------

F--0------0-0-------------------------------------------------------------
D--0------0-0-------------------------------------------------------------
B--0------0-0---------0---------------------0---------------------0------
F--7/-9---9-9-----7---------------------4-------4-------------4---------
B--0------0-0-----0-----------------4----------------------2---------2--
F---------------------------0-----2----------------------0-------------0--
				  p.m----------------------------------------- 

F---0------------------0--0---0-----0-------------------------------------
D------0----------0---0--0---0-----0---------0---------------------------
B------------------0---0--0---0-----0---------0------0-----------0-------
F------------------7---7--7---7/-9--9---------7----------------4---------
B-----------/--7-------7--7---0---------0-0------4----------4------------
F-----------/--5-------5--5------------------------0-------2---------------

F--------------------------0--------0--------0--------0---------------------
D-----------------------------0-----0--------0--------0---------------------
B----------------0--------------0---0--------0--------0---------------------
F----4--------4-----4---------------4-x-7---5-x-3-------------------------
B-----------2----------2-------------5-------5-------------------------------
F--------0---------------------------------------------------------------------

   CHORUS
F------------0---0------------------------------------------------------------
D-----0h1--1------2/4----------------------------0---0---------------------
B------------0---------------------------0---------0---0---------------------
F------------0-------------5--4h5--4---0-------------0---------------------
B--0--------0-----------------------------------------------------------------
F---------------------------------------------4--------------------------------

F-0----------0------------------------------------------------------0---------
D----------------0----------------------------------------------------0-------
B---------0---------0-----------0------------0------------0-----------0-----
F------0----------------------4----0-------4---0-------4----4---------------
B---------------------------4------------2------------2-----------------------
F------------------------2-------------0------------0------------0------------

F-------0-------------0-----0--------------------------------------------------
D-0----0-------------0-----0--------------------------------------------------
B-0----0-------------0-----0--------------------------------------------------
F-12--12------------12-------------------------------------------------------
B-12--12-x-10-----12-------------------------------------------------------
F-10--10------------9--------------------------------------------------------
after the chorus (above) play the verse, then the chorus again, then play the intro about 4 times i think before playing the lick below.  The first chorus has slight distortion.  The second chorus has a heavy distortion.

F--------------------------0---------------------------------------------------
D--------------------------0---------------------------------------------------
B--------------------------0---------------------------------------------------
F---4---------4-----------12--------------------------------------------------
B---4-x-4----2-x-10----12-x-7---------------------------------------------
F---2---------0-----------10--------------------------------------------------
after the lick above, play the chorus again then the intro a couple of times and your done!  How is that for a gooooood tab!

*- HARMONIC
x 1-10 - strum or play the note or notes before however manytimes as it says
h- hammer on
p- pull off
/-slide
p.m-palm mute
Show more